Home » K » Kt Tunstall »

Kt Tunstall - Other Side Of The World Bass

Artists:  A B C D E F G H I J K L M N O P Q R S T U V W X Y Z # 

Other Side Of The World Bass

(ver. 1) Click to play this song!
Kt Tunstall
 Rating:
4/5 (4 votes)
                This is my first tab so hope it's OK. Listen to the song for timing.
Bass does not come in until 2nd half of first verse.

'All the muscles tighten in……………' 
|---------------------------------------------------------------------------|
|-----------------------------------------------------45-5-5h7--------------|
|-7\0--00--0-7—5h7-7-5h70-00-0-7-7p5h7-5h70--00---------------5-------------|
|-----------------------------------------------3-33-3----------------------|

Chorus 
|---------------------------------------------------------------------------|
|---------------------------------------------------------------------------|
|-55-552-22-22---------0005-55-552-22-22----------0-02-20-0---0-5-----------|
|-------------3-322-20------------------3-322-20-0---------3-3--------------|

Verse 2
'On comes the panic light…………'
|---------------------------------------------------------------------------|
|---------------------------------------------------------------------------|
|-57-7-577-0-00--0-7—5h7-7-5h70-00-0-7-7p5h7-5h70--00-----------------------|
|-----------------------------------------------------3-33-3-3--------------|

Chorus 
|---------------------------------------------------------------------------|
|---------------------------------------------------------------------------|
|-55-552-22-22---------0005-55-552-22-22----------0-02-20-0---0-------------|
|-------------3-322-20------------------3-322-20-0---------3-3--------------|


|---------------------------------|
|---------------------------------|
|---------------------------------|
|-0-0-0-0-0-0-0-0-3-3-3-3-3-3-3-3-|

|-----------9-9-9-9---------------9-9-9-9-----------------------------------|
|-------4-7---------7-5-------4-7---------7-5-------------------------------|
|-5-5-5-----------------5-5-5-----------------------------------------------|
|---------------------------------------------------------------------------|


Let bass fade out after the last note before coming in again for the chorus.
|---------------------------------------------------------------------------|
|-----------------------------------------------------------------0---0-----|
|---------------0-2-2-2-2-2-2-2-2-0-0-0-0---------------------0-2---2-------|
|-2-2-2-2-2-2-2---------------------------3-3-3-3-2-2-2-2-0-0---------------|

Come in again here, partway through the chorus
'But it's too hard to say………'
|---------------------------------------------------------------------------|
|---------------------------------------------------------------------------|
|-0-0-0-0-5-55-552-22-22---------02-20-0---0-02-20-0---0-02-20-0---0-05-----|
|-----------------------3-322-20--------3-3---------3-3---------3-3---------|
            
Submit corrections

↑ Back to top | Tablatures and chords for acoustic guitar and electric guitar, ukulele, drums are parodies/interpretations of the original songs. You may use it for private study, scholarship, research or language learning purposes only