Home » K » Kt Tunstall »

Kt Tunstall - Black Horse And The Cherry Tree Bass

Artists:  A B C D E F G H I J K L M N O P Q R S T U V W X Y Z # 

Black Horse And The Cherry Tree Bass

(ver. 2) Click to play this song!
Kt Tunstall
 Rating:
4.4/5 (14 votes)
                [Verse]

G|----------------|----------------|----------------|----------------|
D|----------------|----------------|----------------|----------------|
A|7--7-77---7-7---|9--9-99---7-7---|----------------|----------------|
E|----------------|----------------|----------------|----------------|


[Chorus]

G|----------------|----------------|----------------|----------------|
D|----------------|4-4--44---------|----------------|----------------|
A|7-7--77-5-5--55-|--------3-3--33-|7-7--77-5-5--55-|3-3--33-7-7--77-|
E|----------------|----------------|----------------|----------------|

G|----------------|----------------|----------------|----------------|
D|----------------|4-4--44---------|----------------|----------------|
A|7-7--77-5-5--55-|--------3-3--33-|7-7--77-5-5--55-|3---------------|
E|----------------|----------------|----------------|----------------|


[Post-Chorus 1]

G|----------------|----------------|----------------|----------------|
D|----------------|----------------|----------------|----------------|
A|7--7--7---5-----|7--7--77--5-7---|----------------|----------------|
E|----------------|----------------|----------------|----------------|


[Post-Chorus 2]

 (Variation)

G|----------------|----------------|----------------|----------------|
D|----------------|----------------|----------------|----------------|
A|7--7--7---5-----|7--7--77--5-7---|7--7--7--9^-----|7--7--77--5-7---|
E|----------------|----------------|----------------|----------------|
            
Submit corrections

↑ Back to top | Tablatures and chords for acoustic guitar and electric guitar, ukulele, drums are parodies/interpretations of the original songs. You may use it for private study, scholarship, research or language learning purposes only