» » »

Kristian Stanfill - My Heart Is Yours Tabs

Artists:  A B C D E F G H I J K L M N O P Q R S T U V W X Y Z # 

My Heart Is Yours Tabs

(ver. 1) Click to play this song!
Kristian Stanfill
 Rating:
2.7/5 (22 votes)

 My Heart Is Yours lessons Tabs too difficult? Try these video lessons and learn fast
 
                Intro soft:

E|---------------------------------------------------------------------|
B|------------10--------------------------------10---------------9-----|
G|---------9-------------------9-------------9----------------9--------|
D|-----12------------11--9--------11-----12---------11-----9-----------|
A|---------------------------------------------------------------------|
E|---------------------------------------------------------------------|

Verse (2x) with drive:

E|------------------------------------------------------------------|
B|------------10--------------------------------10---------------9--|
G|---------9-------------------9-------------9----------------9-----|
D|-----12------------11--9--------11-----12---------11-----9--------|
A|------------------------------------------------------------------|
E|------------------------------------------------------------------|

Play after Verse still with drive:

E|--------------------------------|
B|------------10---------------9--|
G|---------9----------------9-----|
D|-----12---------11-----9--------|
A|--------------------------------|
E|--------------------------------|

Soft Chorus (2x) soft:

E|--12-(10x)-10--10--9--9--10--10--12-(10x)-10--10--9--9--10--10--12-(10x)-10--10--9-(12x)-7-(8x)--12--|(9x)
B|-----------------------------------------------------------------------------------------------------|
G|-----------------------------------------------------------------------------------------------------|
D|-----------------------------------------------------------------------------------------------------|
A|-----------------------------------------------------------------------------------------------------|
E|-----------------------------------------------------------------------------------------------------|

Full Chorus with drive:

E|--12-(10x)-10--10--9--9--10--10--12-(10x)-10--10--9--9--10--10--12-(10x)-10--10--9-(12x)-7-(8x)-|
B|------------------------------------------------------------------------------------------------|
G|------------------------------------------------------------------------------------------------|
D|------------------------------------------------------------------------------------------------|
A|------------------------------------------------------------------------------------------------|
E|------------------------------------------------------------------------------------------------|

Bridge (2x):
E|--0-      --0--      -0-      -10-      -0--                          -10---|
B|--10      --12-      -10      -10-      -12-                          -10---|
G|--9- (8x) --9-- (8x) -9- (4x) -9-- (4x) -9-- (4x) Repeat, finish with -9----|
D|----      -----      ---      ----      ----                          ------|
A|----      -----      ---      ----      ----                          ------|
E|----      -----      ---      ----      ----                          ------|            
Submit corrections


        My Heart Is Yours lessons Hard to play? Try these video lessons and learn fast My Heart Is Yours lessons
        
↑ Back to top | Tablatures and chords for acoustic guitar and electric guitar, ukulele, drums are parodies/interpretations of the original songs. You may use it for private study, scholarship, research or language learning purposes only