Home » K » Kris Allen »

Kris Allen - Feeling This Way Tabs

Artists:  A B C D E F G H I J K L M N O P Q R S T U V W X Y Z # 

Feeling This Way Tabs

(ver. 1) Click to play this song!
Kris Allen
[Verse/Chorus]

A#M7 Am Gm - Gm
Gm Am A#M7


[Pre-chorus]

e|-------------|-------------|---------------|-------------|--------------|----------------|-----------------|
B|-------------|-------------|---------------|-------------|--------------|----------------|-----------------|
G|-------------|-------------|---------------|-------------|--------------|----------------|-----------------|
D|-------------|-------------|---------------|-------------|--------------|----------------|-----------------|
A|-0-5-5-x-----|-----x-------|--------x------|-5-5-5----3--|-5-5--x-------|-x------------x-|--------------5-5|
E|-------x-5-5-|-0-3-x--3-3--|--0-3-3-x-5--5-|-------3h5-5-|------x--5--5-|-x-0-3-x-3--3-x-|0-3-3-4-4-5-5----|
Follow 0:53


[Verse/Chorus]

A#M7 Am Gm - Gm
Gm Am A#M7


[Pre-chorus]

e|----------------|---------|----------------|-------------|------------|---------|--------------------------|
B|----------------|---------|----------------|-------------|------------|---------|--------------------------|
G|----------------|---------|----------------|-------------|------------|---------|--------------------------|
D|----------------|---------|----------------|-------------|------------|---------|--------------------------|
A|--0-5-5---------|---------|----------------|-3-5------3--|5-5---------|---------|-----------------3-5------|
E|----------3-5-5-|--0-3-3--|---0-3-3-4-4-5s0|-------3h5-5-|-----3-5-5--|-0-3-3---|--0-3-3-4-4-5s0-----------|
Based this one off the studio version.


[Bridge]

A#m7 Cm D


[Verse/Chorus]
 
A#M7 Am Gm - Gm
Gm Am A#M7


[Adlib/Outro] (Gm Am A#M7)

e|--------------------------|
B|--------------------------|
G|---3-5-3-5--7--5----------|
D|------------------7-5-3--5|
A|--------------------------|
E|--------------------------|
            
Submit corrections

↑ Back to top | Tablatures and chords for acoustic guitar and electric guitar, ukulele, drums are parodies/interpretations of the original songs. You may use it for private study, scholarship, research or language learning purposes only