» » »

Krewella - Surrender The Throne Tabs

Artists:  A B C D E F G H I J K L M N O P Q R S T U V W X Y Z # 

Surrender The Throne Tabs

(ver. 1) Click to play this song!
Krewella
 Rating:
4.3/5 (29 votes)

 Surrender The Throne  lessons Tabs too difficult? Try these video lessons and learn fast
 
                e|----------------------|----------------------|----------------------|----------------------|
B|----------------------|----------------------|----------------------|----------------------| 
G|-----------5----------|-----------5----------|-----------5----------|-----------5----------| 
D|--------6-----6-------|--------6-----6-------|--------6-----6-------|--------6-----6-------|
A|----8-----------------|----7-----------------|----6-----------------|----5-----------------|
E|----------------------|----------------------|----------------------|----------------------|

e|----------------------|----------------------|----------------------|----------------------|
B|----------------------|----------------------|----------------------|----------------------| 
G|-----------5----------|-----------5----------|-----------5----------|----------5-----------|
D|--------6-----6-------|--------6-----6-------|--------6-----6-------|----------6-----------|
A|----4-----------------|----3-----------------|----8-----------------|----------8-----------|
E|----------------------|----------------------|----------------------|----------------------|            
Submit corrections


        Surrender The Throne  lessons Hard to play? Try these video lessons and learn fast Surrender The Throne  lessons
        
↑ Back to top | Tablatures and chords for acoustic guitar and electric guitar, ukulele, drums are parodies/interpretations of the original songs. You may use it for private study, scholarship, research or language learning purposes only