» » »

Krewella - Human Tabs

Artists:  A B C D E F G H I J K L M N O P Q R S T U V W X Y Z # 

Human Tabs

(ver. 1) Click to play this song!
Krewella
 Rating:
4.3/5 (13 votes)

 Human lessons Tabs too difficult? Try these video lessons and learn fast
 
                1st version:

e|-------3--------|---------5--------|--------7-------7-------7----------------|
B|-----1-----1----|-------3-----3----|------5-----5-------5------5---5---------|
G|---0---------0--|-----0---------0--|----0---------0-------0------0-----------|
D|----------------|------------------|-----------------------------------------|
A|-3--------------|--5---------------|--7--------------------------------------|
E|----------------|------------------|-----------------------------------------|


2nd version:

e|-------3--------|--------5--------|--------7-------7-------7-----------------|
B|-----3-----3----|------3-----3----|------0-----0-------0-------0---0---------|
G|---0---------0--|----0---------0--|----0---------0-------0-------0-----------|
D|----------------|-----------------|------------------------------------------|
A|-3--------------|--5--------------|--7---------------------------------------|
E|----------------|-----------------|------------------------------------------|

In the 2nd version you can also play it like this, it won't differ too much:

e|-------3--------|--------5--------|--------7-------7-------7-----------------|
B|-----3-----3----|------0-----0----|------0-----0-------0-------0---0---------|
G|---0---------0--|----0---------0--|----0---------0-------0-------0-----------|
D|----------------|-----------------|------------------------------------------|
A|-3--------------|--5--------------|--7---------------------------------------|
E|----------------|-----------------|------------------------------------------|            
Submit corrections


        Human lessons Hard to play? Try these video lessons and learn fast Human lessons
        
↑ Back to top | Tablatures and chords for acoustic guitar and electric guitar, ukulele, drums are parodies/interpretations of the original songs. You may use it for private study, scholarship, research or language learning purposes only