Home » K » Kravitz Lenny »

Kravitz Lenny - Stillness Of Heart Tabs

Artists:  A B C D E F G H I J K L M N O P Q R S T U V W X Y Z # 

Stillness Of Heart Tabs

(Version #2)
Kravitz Lenny
Lenny Kravitz - Stillness of heart


Intro:


e:-----------------------
B:--/13-13~-11-----------
G:------------12-12~-----


Solo 2:45 (chords as verse) (C/G, G/C x3)

                                                                   e:------------------------------------------------------------------------------
B:--------------------------------------------------11----------11--------------
G:10/12---/12-10-------------------------------10/12--12-13b(15)--12-11~--------
D:-----10-------12-10-----10-12-10-13-10-10~/-----------------------------------
A:-------------------13-10------------------------------------------------------

                                  
e:--------13---------------------------
B:-13b(15)--b(15)13-13w(15)-11---------
G:----------------------------12-10~---
D:-------------------------------------
                                
e:--------------------------------------13/15-15/17-17/18-18/20-20/22-20-20b(22)-20b(22)-
B:-----11--13b(15)-11--b(15)13-11--13/15-------------------------------------------------
G:10/12--12----------12----------12------------------------------------------------------
D:---------------------------------------------------------------------------------------


Verse:


C/G
I'm out here on the street
G/C
There's no one left to meet
G/C
The things that were so sweet
G/C
No longer move my feet
               F
But I keep trying
             Eb   
I keep on trying


Chorus Chords, distortion and a little reverb:


Bb                 F 
     All that I want 
                 C
is stillness of heart
           Eb
So I can start
Bb                F 
     To find my way
            C
Out of the dark
                Eb                       
And into your heart


Bridge:

                C
Where's the love?
                           Eb
What is this world we live in?
               C
Where's the love?
                         Eb
We've got to be more giving
               C
Where's the love?
                        Eb
What happened to forgiving?
     F
Anyone?


Chorus a few times and fade.
            
Submit corrections

↑ Back to top | Tablatures and chords for acoustic guitar and electric guitar, ukulele, drums are parodies/interpretations of the original songs. You may use it for private study, scholarship, research or language learning purposes only