» » »

Koji Kondo - Eating Lemons Tabs

Artists:  A B C D E F G H I J K L M N O P Q R S T U V W X Y Z # 

Eating Lemons Tabs

(ver. 1) Click to play this song!
Koji Kondo
 Rating:
4/5 (4 votes)

 Eating Lemons  lessons Tabs too difficult? Try these video lessons and learn fast
 
                
Intro
e|-0-0-0-0-0-0-0-0-0-0-0-0-0-0-0-0|-0-0-0-0-0-0-0-0-0-0-0-0-0-0-0-|
B|-1-1-1-1-1-1-1-1-1-1-1-1-1-1-1-1|-0-0-0-0-0-0-0-0-0-0-0-0-0-0-0-|
G|--------------------------------|---------------0-0-0-0-0-0-0-0-|
D|--------------------------------|-------------------------------| x2
A|--------------------------------|-------------------------------|
E|--------------------------------|-------------------------------|
 (you can hammer on the 2 on the G for that F, so 0h2)
e|-x------------------------------|-x-----------------------------|
B|-1------------------------------|-0-----------------------------|
G|-2------------------------------|-0-----------------------------|
D|-3------------------------------|-2-----------------------------| x2
A|-3------------------------------|-3-----------------------------|
E|-x------------------------------|-x-----------------------------|

Verse 1
 (you can hammer on the 2 on the G string for that F chord, so 0h2)
e|-x------------------------------|-x-----------------------------|
B|-1------------------------------|-0-----------------------------|
G|-2------------------------------|-0-----------------------------|
D|-3------------------------------|-2-----------------------------| x4
A|-3------------------------------|-3-----------------------------|
E|-x------------------------------|-x-----------------------------|

e|-x------------------------------|-x-----------------------------|
B|-0------------------------------|-0-----------------------------|
G|-0------------------------------|-0-----------------------------|
D|-0------------------------------|-0-----------------------------| x2
A|-2------------------------------|-3-----------------------------|
E|-3------------------------------|-1-----------------------------|

Pre-verse
e|-0-0-0-0-0-0-0-0-0-0-0-0-0-0-0-0|-0-0-0-0-0-0-0-0-0-0-0-0-0-0-0-|
B|-1-1-1-1-1-1-1-1-1-1-1-1-1-1-1-1|-0-0-0-0-0-0-0-0-0-0-0-0-0-0-0-|
G|--------------------------------|---------------0-0-0-0-0-0-0-0-|
D|--------------------------------|-------------------------------|
A|--------------------------------|-------------------------------|
E|--------------------------------|-------------------------------|

Verse 2
 (you can hammer on the 2 on the G string for that F chord, so 0h2)
e|-x------------------------------|-x-----------------------------|
B|-1------------------------------|-0-----------------------------|
G|-2------------------------------|-0-----------------------------|
D|-3------------------------------|-2-----------------------------| x4
A|-3------------------------------|-3-----------------------------|
E|-x------------------------------|-x-----------------------------|

e|-x------------------------------|-x-----------------------------|
B|-0------------------------------|-0-----------------------------|
G|-0------------------------------|-0-----------------------------|
D|-0------------------------------|-0-----------------------------| x2
A|-2------------------------------|-3-----------------------------|
E|-3------------------------------|-1-----------------------------|

Bridge
e|-0-0-0-0-0-0-0-0-0-0-0-0-0-0-0-0|-0-0-0-0-0-0-0-0-0-0-0-0-0-0-0-|
B|-1-1-1-1-1-1-1-1-1-1-1-1-1-1-1-1|-0-0-0-0-0-0-0-0-0-0-0-0-0-0-0-|
G|--------------------------------|---------------0-0-0-0-0-0-0-0-|
D|--------------------------------|-------------------------------| x2
A|--------------------------------|-------------------------------|
E|--------------------------------|-------------------------------|

e|-x------x---x----------x---x----|-x-----x-x-x-x-x---------------|
B|-1------1---1----------1---1----|-0-----0-0-0-0-0---------------|
G|-2------0-h-2----------0-h-2----|-0-----0-0-0-0-0---------------|
D|-3------3---3----------3---3----|-2-----2-0-2-3-2---------------| x2
A|-3------3---3----------3---3----|-3-----3-3-3-3-3---------------|
E|-x------x---x----------x---x----|-x-----x-x-x-x-x---------------|

e|-x------------------------------|-x-----------------------------|
B|-1------------------------------|-0-----------------------------|
G|-2------------------------------|-0-----------------------------|
D|-3------------------------------|-2-----------------------------|
A|-3------------------------------|-3-----------------------------|
E|-x------------------------------|-x-----------------------------|

e|-x------------------------------|-x----------------x------------|
B|-1------------------------------|-0----------------0------------|
G|-2------------------------------|-0----------------0------------|
D|-3------------------------------|-2----------------0------------|
A|-3------------------------------|-3----------------5------------|
E|-x------------------------------|-x----------------3------------|

Verse 3
Palm-mute
e|-x------------------------------|-x-----------------------------|
B|-0------------------------------|-0-----------------------------|
G|-2------------------------------|-0-----------------------------|
D|-3------------------------------|-2-----------------------------| x4
A|-3------------------------------|-3-----------------------------|
E|-x------------------------------|-x-----------------------------|
PM . . . . . . . . . . . . . . . . . . . . . . . . . . . . . . .

Outro
e|-x---------x--------------------|-x-----------------------------|
B|-1---------1--------------------|-1-----------------------------|
G|-0-------h-2--------------------|-0-----------------------------|
D|-2---------2--------------------|-x-----------------------------|
A|-0---------0--------------------|-2-----------------------------|
E|-x---------x--------------------|-x-----------------------------|



Changes for album version - electric guitar
Intro/pre-verse/bridge
e|-0-0-0-0-0-0-0-0-0-0-0-0-0-0-0-0|-0-0-0-0-0-0-0-3-3-3-3-3-3-3-3-|
B|-1-1-1-1-1-1-1-1-1-1-1-1-1-1-1-1|-3-3-3-3-3-3-3-0-0-0-0-0-0-0-0-|
G|--------------------------------|---------------0-0-0-0-0-0-0-0-|
D|--------------------------------|-------------------------------| x2
A|--------------------------------|-------------------------------|
E|--------------------------------|-------------------------------|

Bridge solo guitar (relative to capo)
e|----------------|
B|--------------5-|
G|/5p4---5/7(\5)--|
D|----------------|
A|----------------|
E|----------------|

Verse 3 - same except for last repeat of the 4 play
e|-x------------------------------|-x---------------x-------------|
B|-0------------------------------|-0---------------0-------------|
G|-2------------------------------|-0---------------0-------------|
D|-3------------------------------|-2---------------0-------------|
A|-3------------------------------|-3---------------5-------------|
E|-x------------------------------|-x---------------3-------------|
PM . . . . . . . . . . . . . . .             
Submit corrections


        Eating Lemons  lessons Hard to play? Try these video lessons and learn fast Eating Lemons  lessons
        
↑ Back to top | Tablatures and chords for acoustic guitar and electric guitar, ukulele, drums are parodies/interpretations of the original songs. You may use it for private study, scholarship, research or language learning purposes only