» » »

Koji Kondo - Dungeon Theme Tabs

Artists:  A B C D E F G H I J K L M N O P Q R S T U V W X Y Z # 

Dungeon Theme Tabs

(ver. 1) Click to play this song!
Koji Kondo
 Rating:
2.5/5 (28 votes)

 Dungeon Theme  lessons Tabs too difficult? Try these video lessons and learn fast
 
                
[              CHORDS              ]
[  G5   F#/D  F/D   E/D   Eb/D  D5 ]
[  X    X     X     X     X     X  ]
[  X    X     X     X     X     X  ]
[  X    X     X     X     X     X  ]
[  5    4     3     2     1     0  ]
[  5    5     5     5     5     0  ]
[  5    4     3     5     1     0  ]
 
(Compressor + Fuzz actually sounds really nice with background and maybe a slight rotator or flanger for lead)

Background (Part I):
   G5                                F#/D                              F/D
E|---------------------------------|---------------------------------|---------------------------------|
B|---------------------------------|---------------------------------|---------------------------------|
G|---------------------------------|---------------------------------|---------------------------------|
D|---------------------------------|---------------------------------|---------------------------------|
A|-----5-6-----5-6-----5-6-----5-6-|-----5-6-----5-6-----5-6-----5-6-|-----5-6-----5-6-----5-6-----5-6-|
D|-5-8-----5-8-----5-8-----5-8-----|-4-7-----4-7-----4-7-----4-7-----|-3-6-----3-6-----3-6-----3-6-----|
   E/D                               Eb/D                              D5
E|---------------------------------|---------------------------------|---------------------------------|
B|---------------------------------|---------------------------------|---------------------------------|
G|---------------------------------|---------------------------------|---------------------------------|
D|---------------------------------|---------------------------------|---------------------------------|
A|-----5-6-----5-6-----5-6-----5-6-|-----5-6-----5-6-----5-6-----5-6-|-----5-6-----5-6-----5-6-----5-6-|
D|-2-5-----2-5-----2-5-----2-5-----|-1-5-----1-5-----1-5-----1-5-----|-0-5-----0-5-----0-5-----0-5-----|

Lead (Part I)
E|---------------------------------|---------------------------------|---------------------------------|
B|-------------------------4-------|-3-------------------------------|-----------------------------3---|
G|-----------------3---------------|---------------------------------|-----------------------1---------|
D|-5-------------------------------|---------4-----------------------|-3-------------------------------|
A|---------------------------------|---------------------------------|---------------------------------|
D|---------------------------------|---------------------------------|---------------------------------|

E|---------------------------------|---------------------------------|---------------------------------|
B|-2-------------------------------|-------------------------4---3---|-----------------------3-----2---|
G|---------------------------------|-----------------0---------------|-----------------0---------------|
D|---------2-----------------------|-1p0h1---------------------------|---------------------------------|
A|---------------------------------|---------------------------------|-5p4h5---------------------------|
D|---------------------------------|---------------------------------|---------------------------------|


Background becomes guitar 1 and they both should have the same volume at this part

Guitar 1 (Part II):

E|---------------------------2---2-5-2-5-8-|
B|-------1-----1-4---1-4-1-4---4-----------|
G|-----2-----2-----2-----------------------|
D|---4-----4-------------------------------|
A|-3---------------------------------------|
D|-----------------------------------------|

Guitar 2 (Part II):

E|-----------------------------------------|
B|-----------------------------------------|
G|-------------------------2---------------|
D|-----------------1---1-4---4-1---1-------|
A|-----0---0-3-0-3---3-----------3---3-0---|
D|-0-4---4-------------------------------4-|            
Submit corrections


        Dungeon Theme  lessons Hard to play? Try these video lessons and learn fast Dungeon Theme  lessons
        
↑ Back to top | Tablatures and chords for acoustic guitar and electric guitar, ukulele, drums are parodies/interpretations of the original songs. You may use it for private study, scholarship, research or language learning purposes only