» » »

Kinks - Waterloo Sunset Bass

Artists:  A B C D E F G H I J K L M N O P Q R S T U V W X Y Z # 

Waterloo Sunset Bass

(ver. 1) Click to play this song!
Kinks
 Rating:
4.2/5 (5 votes)

 Waterloo Sunset lessons Tabs too difficult? Try these video lessons and learn fast
 
                Waterloo Sunset
Released by The Kinks in 1967 reaching number 2 in UK charts
Bass performance Peter Quaife. Tab by bass50611. One of The Kinks
more famous songs. Straight forward and more or less as per

Intro:
G|-------------------------------------------------------------------|
D|-9-9-9-9---7-7-7-7---6-6-6-6---------------------------------------|
A|-----------------------------9-9-9-9---7-7-7-7---6-6-6-6---4-4-4-4-|
E|-------------------------------------------------------------------|

G|----------------------------------------------|
D|----------------2-----------------------------|
A|-2-2-2-2-----2-4--2-2-2-2---0-0-0-0---0-0-0-0-|
E|----------0-0---------------------------------|

Verse & Chorus:
G|-----------------------------------------------------------------|
D|-2-22--1-11--------------2-22--1-11-------------4-44--3-33--2-22-|
A|------------4-44--4-44--------------4-44--4-44-------------------|
E|-----------------------------------------------------------------|
                          .                              .
G|---------------------------------------------------------|
D|-------2-22--1-11-----------76-44--4-22--11------------2-|
A|-2-22-------------4-44-44-------------------44--2-2-2-2--|
E|---------------------------------------------------------|

G|----------------------------------------------------------|
D|-76-44--4-22--11-----9-9-9-9---7-7-7-7---6-6-6-6----------|
A|-----------------44------------------------------9-9-9-9--|
E|----------------------------------------------------------|

G|---------------------------------------|
D|---------------------------------------|
A|-7-7-7-7---6-6-6-6---4-4-4-4---2-2-2-2-|
E|---------------------------------------|

REPEAT VERSE & CHORUS:

Final Verse:
G|-----------------------------------------------------------------|
D|-2-22--1-11--------------2-22--1-11-------------4-44--3-33--2-22-|
A|------------4-44--4-44--------------4-44--4-44-------------------|
E|-----------------------------------------------------------------|
                                   Solo:
G|-----------------------------|   |------------------------------|
D|-------2-22--1-11------------|   |-2-22---1-11------------------|
A|-2-22-------------4-44--4-44-|   |-------------4-44---0h2-2-2-2-|
E|-----------------------------|   |------------------------------|

Outro:(to Fade):
G|-----------|
D|-----------|
A|-0h2-2-2-2-|
E|-----------|
            
Submit corrections


        Waterloo Sunset lessons Hard to play? Try these video lessons and learn fast Waterloo Sunset lessons
        
↑ Back to top | Tablatures and chords for acoustic guitar and electric guitar, ukulele, drums are parodies/interpretations of the original songs. You may use it for private study, scholarship, research or language learning purposes only