» » »

Kinks - Dead End Street Bass

Artists:  A B C D E F G H I J K L M N O P Q R S T U V W X Y Z # 

Dead End Street Bass

(ver. 2) Click to play this song!
Kinks
 Rating:
4/5 (4 votes)


 Dead End Street lessons Tabs too difficult? Try these video lessons and learn fast
 
                Dead End Street
The Kinks
Written by Ray Davies; released as a single with "Big Black Smoke" as the
B-side.

Intro:
G|------ ------ ------ ------|------ ------ ------ ------|
D|---------------------------|---------------------------|
A|---------------------------|-------------------------7-|
E|---------------------------|---------------------------|



G|------ ------ ------ ------|------ ------ ------ ------|
D|7------7------7------7-----|7------7------7------7-----|
A|-----------7-------------7-|-----------7---------------|
E|---------------------------|---------------------------|



G|------ ------ ------ ------|------ ------ ------ ------|
D|7------7------7------7-----|7------7------7------7-----|
A|-----------7-------------7-|-----------7-------------7-|
E|---------------------------|---------------------------|



G|------ ------ ------ ------|------ ------ ------ ------|
D|7------7------7------7-----|7------7------7------7-----|
A|-----------7-------------7-|-----------7---------------|
E|---------------------------|---------------------------|


Verse:
G|------ ------ ------ ------|------ ------ ------ ------|
D|7------7------7------7-----|5------5------5------5-----|
A|-----------7---------------|-----------5---------------|
E|---------------------------|---------------------------|
         There's crack in the cei   -    ling,
             a      up

G|------ ------ ------ ------|------ ------ ------ ------|
D|---------------------------|-----------5--7------7-----|
A|5------5------5------5---5-|8------8-----------------7-|
E|---------------------------|---------------------------|
         and    kitchen sink  lea   -    king.
             the           is

G|------ ------ ------ ------|------ ------ ------ ------|
D|7------7------7------7-----|5------5------5------5-----|
A|---------------------------|-----------5---------------|
E|---------------------------|---------------------------|
         Out of work   got no mo    -    ney,
                    and

G|------ ------ ------ ------|------ ------ ------ ------|
D|---------------------------|-----------5--7------7-----|
A|5------5------5------5-----|8------8-----------------7-|
E|---------------------------|---------------------------|
      a  Sunday joint  bread  ho    -    ney.
                    of     and

G|------ ------ ------ ------|------ ------ ------ ------|
D|7--------------------------|7--------------------5-----|
A|---------------------------|---------------------------|
E|---------------------------|---------------------------|
         What   are    we     living     for?


G|------ ------ ------ ------|------ ------ ------ ------|
D|---------------------------|-------------------------5-|
A|8-------------8------8-----|7------7------7------7-----|
E|---------------------------|---------------------------|
      Two-roomed apartment    second     floor.
                       on the

G|------ ------ ------ ------|------ ------ ------ ------|
D|7--------------------------|7--------------------5-----|
A|---------------------------|---------------------------|
E|---------------------------|---------------------------|
         No     mo  -  ney    coming     in,


G|------ ------ ------ ------|------ ------ ------ ------|
D|---------------------------|-----------------------5-6-|
A|8------8------8------8-----|7------7------7------7-----|
E|---------------------------|---------------------------|
      the rent collector's    trying get in.
                       knocking,  to

G|------ ------ ------ ------|------ ------ ------ ------|
D|7------7------7------7-----|7------7------7------7-----|
A|-------------------------7-|-----------7---------------|
E|---------------------------|---------------------------|
         We are     strictly  second     class,    we don't


G|------ ------ ------ ------|------ ------ ------ ------|
D|---------------------------|---------------------------|
A|5------5------5------5---6-|7------7------7------7-----|
E|---------------------------|---------------------------|
                    understand.

Refrain:
G|------ ------ ------ ------|------ ------ ------ ------|
D|---------------------------|---------------------------|
A|9------9---9--8------8-----|7------7------6------6-----|
E|---------------------------|---------------------------|
             Oh, we should be in Dead End Street,
 (Dead end!)

G|------ ------ ------ ------|------ ------ ------ ------|
D|---------------------------|---------------------------|
A|9------9------8------8-----|7------7------6------6-----|
E|---------------------------|---------------------------|
                people are living in Dead End Street,
 (Dead end!)

G|------ ------ ------ ------|------ ------ ------ ------|
D|---------------------------|---------------------------|
A|9------9------8------8-----|7------7------6------6-----|
E|---------------------------|---------------------------|
             I'm gonna die in Dead End   Street,
 (Dead end!)

G|------ ------ ------ ------|------ ------ ------ ------|
D|---------------------------|---------------------------|
A|--------------8------8-----|--------------8------8-----|
E|8------8-------------------|8------8-------------------|
  Dead End   Street,          Dead End   Street.
                   (Yeah!                       Yeah!)
Verse:
G|------ ------ ------ ------|------ ------ ------ ------|
D|7------7------7------7-----|5------5------5------5-----|
A|-----------7---------------|-----------5---------------|
E|---------------------------|---------------------------|
         On a cold and frosty mor   -    ning,


G|------ ------ ------ ------|------ ------ ------ ------|
D|---------------------------|-----------5--7------7-----|
A|5------5------5------5-----|8------8-----------------7-|
E|---------------------------|---------------------------|
         wipe my eyes  stop   yaw   -    ning,
                    and    me

G|------ ------ ------ ------|------ ------ ------ ------|
D|7------7------7------7-----|5------5------5------5-----|
A|-----------7---------------|-----------5---------------|
E|---------------------------|---------------------------|
         And my feet   nearly fro   -    zen,
                    are

G|------ ------ ------ ------|------ ------ ------ ------|
D|---------------------------|-----------5--7------7-----|
A|5------5------5------5---5-|8------8-------------------|
E|---------------------------|---------------------------|
         boil   tea,   put    toast      on.
             the    and    some

G|------ ------ ------ ------|------ ------ ------ ------|
D|7--------------------------|7--------------------5-----|
A|---------------------------|---------------------------|
E|---------------------------|---------------------------|
         What   are    we     living     for?


G|------ ------ ------ ------|------ ------ ------ ------|
D|---------------------------|---------------------------|
A|8------8------8------8-----|7------7------7------7-----|
E|---------------------------|---------------------------|
      Two-roomed apartment    second     floor.
                       on the

G|------ ------ ------ ------|------ ------ ------ ------|
D|7--------------------------|7--------------------5-----|
A|---------------------------|---------------------------|
E|---------------------------|---------------------------|
         No     chance to     e - mig -  rate,


G|------ ------ ------ ------|------ ------ ------ ------|
D|---------------------------|-----------------------5-6-|
A|8------8------8------8-----|7------7------7------7-----|
E|---------------------------|---------------------------|
      I'm deep  debt,  now    much too   late.
             in            it's

G|------ ------ ------ ------|------ ------ ------ ------|
D|7------7------7------7-----|7------7------7------7-----|
A|-----------7-------------7-|-----------7---------------|
E|---------------------------|---------------------------|
         We both    want   to work   so  hard,     we  can't


G|------ ------ ------ ------|------ ------ ------ ------|
D|---------------------------|---------------------------|
A|5------5------5------5-----|7------7------7------7-----|
E|-----------5---------------|---------------------------|
                    get the chance.

Refrain:
G|------ ------ ------ ------|------ ------ ------ ------|
D|---------------------------|---------------------------|
A|9------9------8------8-----|7------7------6------6-----|
E|---------------------------|---------------------------|
                People live in Dead End  Street,
 (Dead end!)

G|------ ------ ------ ------|------ ------ ------ ------|
D|---------------------------|---------------------------|
A|9------9------8------8-----|7------7------6------6-----|
E|---------------------------|---------------------------|
                People are dyin' on Dead End Street,
 (Dead end!)

G|------ ------ ------ ------|------ ------ ------ ------|
D|---------------------------|---------------------------|
A|9------9------8------8-----|7------7------6------6-----|
E|---------------------------|---------------------------|
             I'm gonna die on Dead End   Street,
 (Dead end!)

G|------ ------ ------ ------|------ ------ ------ ------|
D|---------------------------|-------------------------7-|
A|--------------8------8-----|--------------8------8-----|
E|8------8-------------------|8------8-------------------|
  Dead End   Street,          Dead End   Street.
                   (Yeah!                       Yeah!)
Re-intro:
G|------ ------ ------ ------|------ ------ ------ ------|
D|7------7------7------7-----|7------7------7------7-----|
A|-------------------------7-|-----------7-------------7-|
E|---------------------------|---------------------------|



G|------ ------ ------ ------|------ ------ ------ ------|
D|7------7------7------7-----|7------7------7------7-----|
A|-----------7-------------7-|-------------------------7-|
E|---------------------------|---------------------------|



G|------ ------ ------ ------|------ ------ ------ ------|
D|7------7------7------7-----|7------7------7------7-----|
A|-----------7---------------|-----------7-------------7-|
E|---------------------------|---------------------------|



G|------ ------ ------ ------|------ ------ ------ ------|
D|7------7------7------7-----|7------7------7------7-----|
A|---------------------------|-----------7---------------|
E|---------------------------|---------------------------|


Refrain:
G|------ ------ ------ ------|------ ------ ------ ------|
D|---------------------------|---------------------------|
A|9------9------8------8---11/12-----12-----10-----10----|
E|---------------------------|---------------------------|
                People live on Dead End  Street,
 (Dead end!)

G|------ ------ ------ ------|------ ------ ------ ------|
D|---------------------------|---------------------------|
A|9------9------8------8---11/12-----12-----10-----10----|
E|---------------------------|---------------------------|
                People are dyin' on Dead End Street,
 (Dead end!)

G|------ ------ ------ ------|------ ------ ------ ------|
D|---------------------------|---------------------------|
A|9------9------8------8---11/12-----12-----10-----10----|
E|---------------------------|---------------------------|
             I'm gonna die on Dead End   Street,
 (Dead end!)

G|------ ------ ------ ------|------ ------ ------ ------|
D|---------------------------|---------------------------|
A|--------------8------8-----|--------------8------8-----|
E|8------8-------------------|8------8-------------------|
  Dead End   Street,          Dead End   Street,
                   (Yeah!                       Yeah!)
Outro:
G|------ ------ ------ ------|------ ------ ------ ------|
D|---------------------------|---------------------------|
A|--------------8------8-----|--------------8------8-----|
E|8------8-------------------|8------8-------------------|
  Dead End   Street,          head to my feet,
                   (Yeah!                       Yeah!)

G|------ ------ ------ ------|------ ------ ------ ------|
D|---------------------------|---------------------------|
A|--------------8------8-----|--------------8------8-----|
E|8------8-------------------|8------8-------------------|
  Dead End   Street,          Dead End   Street,
                   (Yeah!                       Yeah!)

G|------ ------ ------ ------|------ ------ ------ ------|
D|---------------------------|---------------------------|
A|--------------8------8-----|--------------8------8-----|
E|8------8-------------------|8------8-------------------|
  Dead End   Street,              head to feet,
                   (Yeah!                       Yeah!)

G|------ ------ ------ ------|------ ------ ------ ------|
D|---------------------------|---------------------------|
A|--------------8------8-----|--------------8------8-----|
E|8------8-------------------|8------8-------------------|
      head to feet,               Dead End Street,
                   (Yeah!                       Yeah!)

G|------ ------ ------ ------|------ ------ ------ ------|
D|---------------------------|---------------------------|
A|--------------8------8-----|--------------8------8-----|
E|8------8-------------------|8------8-------------------|
      Dead End Street...
                   (Yeah!                       Yeah!)

G|------ ------ ------ ------|------ ------ ------ ------|
D|---------------------------|---------------------------|
A|--------------8------8-----|--------------8------8-----|
E|8------8-------------------|8------8-------------------|
                   (Yeah!                       Yeah!)
repeat and fade out...

Please e-mail me for any corrections, or write a comment.
            
Submit corrections



        Dead End Street lessons Hard to play? Try these video lessons and learn fast Dead End Street lessons
        
↑ Back to top | Tablatures and chords for acoustic guitar and electric guitar, ukulele, drums are parodies/interpretations of the original songs. You may use it for private study, scholarship, research or language learning purposes only