Home » K » King Krule »

King Krule - Cellular Bass

Artists:  A B C D E F G H I J K L M N O P Q R S T U V W X Y Z # 

Cellular Bass

(ver. 1) Click to play this song!
King Krule
 Rating:
4.4/5 (8 votes)
                [Intro]
 
G|----\6---------11----14------\6-----|
D|------------------------------------|
A|------------------------------------|
E|------------------------------------|
 
G|-----11----14-------\6---------\6---|
D|------------------------------------|
A|------------------------------------|
E|------------------------------------|
 
G|----11-----14---------\6------------|
D|------------------------------------|
A|------------------------------------|
E|------------------------------------|
 
 
(just before “there’s a television”)
 
G|------------------------------------|
D|------------------------------------|
A|------------------------------------|
E|---3/--0-----2-----------3/--0-----2| 
 
 
G|------------------------------------|
D|------------------------------------|
A|------------------------------------|
E|---3/--0-----2-----------3/--0-----2| 
 
G|------------------------------------|
D|------------------------------------|
A|------------------------------------|
E| ---1--------0-0--------------------| X3
 
 
You Can Play This Instead Of The Guitar
 
G|---7----9----11---------------------|
D|---5----7----9----------------------|
A|---5----7----9----------------------|
E|------------------------------------|
 
            
Submit corrections

↑ Back to top | Tablatures and chords for acoustic guitar and electric guitar, ukulele, drums are parodies/interpretations of the original songs. You may use it for private study, scholarship, research or language learning purposes only