» » »

King Crimson - Vrooom Tabs

Artists:  A B C D E F G H I J K L M N O P Q R S T U V W X Y Z # 

Vrooom Tabs

(ver. 1) Click to play this song!
King Crimson
 Rating:
2.8/5 (26 votes)

 Vrooom lessons Tabs too difficult? Try these video lessons and learn fast
 
                 Robert Fripp part
*New Standard Tuning: (Low to High) C-G-D-A-E-G

  Intro:
  6/8

  E          F        B        C        F#        G    Eb (Eb)
G|------------------|------------------|------------------|------------------||
E|12--11-----11--8--|-7--6-----6--3----|------------------|------------------||
A|-------11--------8|-------6-------3--|-9--8-----8--5----|------------------||
D|------------------|------------------|-------8-------5--|(5)---------------||
G|------------------|------------------|------------------|------------------||
C|------------------|------------------|------------------|------------------||

*******************************************************************************
  4/4

  G
G|----12------------|----15------------|----10------------|----6-------------||
E|----14b-----------|----17br----------|----12br----------|----8br-----------||
A|------------------|------------------|------------------|------------------||
D|------------------|------------------|------------------|------------------||
G|0-0------0-0------|0-0------0-0------|0-0------0-0------|0-0------0-0------||
C|------------------|------------------|------------------|------------------||

*******************************************************************************
  Main Theme

G|------------------|------------------||
E|------------------|------------------||
A|----9--8----8--7--|----7--5----------||
D|----12-11---11-10-|----10-8----------||
G|0-0------0-0------|0-0------0-0--/14\||
C|------------------|------------------||

G|------------------|------------------||
E|------------------|------------------||
A|----9--8-----8--6-|----6-5-----------||
D|----12-11----11-9-|----9-8-----------||
G|0-0------0-0------|0-0------0-0--/11\||
C|------------------|------------------||

G|------------------|------------------||
E|------------------|------------------||
A|----10-9----9--8--|----8--7----------||
D|----13-12---12-11-|----11-10---------||
G|0-0------0-0------|0-0------0-0------||
C|------------------|------------------||

G|------------------|------------------||
E|------------------|------------------||
A|----9--8----8--7--|----7--5----------||
D|----12-11---11-10-|----10-8----------||
G|0-0------0-0------|0-0------0-0------||
C|------------------|--------------/12\||

  2/4
G|---------|---------|---------|---------||
E|---------|---------|---------|---------||
A|----5/6-5|-----5--4|-----4--3|---------||
D|----8/9-8|-----8--7|-----7--6|---------||
G|---------|---------|---------|---------||
C|4-4------|---------|---------|-1-1-2-3-||

G|---------|---------|---------|---------||
E|---------|---------|---------|---------||
A|----5/6-5|-----5--4|-----4--3|---------||
D|----8/9-8|-----8--7|-----7--6|---------||
G|---------|---------|---------|---------||
C|4-4------|---------|---------|-1-1-2-3-||

G|---------|---------|---------|---------|--------||
E|---------|---------|---------|---------|--------||
A|-----5--1|---------|---------|---------|--------||
D|-----8--4|---------|---------|---------|--------||
G|---------|---------|-0-3-4---|---------|0-3-4-0-||
C|4--------|----0-3-4|-------0-|----0-3-4|--------||

*******************************************************************************
  4/4

G|------------------|------------------||
E|------------------|------------------||
A|----9--8----8--7--|----7--5----------||
D|----12-11---11-10-|----10-8----------||
G|0--------0-0------|0-0------0-0------||
C|------------------|------------------||

G|------------------|------------------||
E|------------------|------------------||
A|----10-9----9--8--|----8--7----------||
D|----13-12---12-11-|----11-10---------||
G|0-0------0-0------|0-0------0-0------||
C|------------------|------------------||

G|------------------|------------------||
E|------------------|------------------||
A|----9--8----8--7--|----7--5----------||
D|----12-11---11-10-|----10-8----------||
G|0-0------0-0------|0-0---------------||
C|------------------|------------------||
                                                     2/4
G|---------|---------|---------|---------|---------||-----||
E|---------|---------|---------|---------|---------||-R---||
A|--5-1----|--1-5----|--5-4----|--4-3----|--3-2----||--E--||
D|--8-4----|--4-8----|--8-7----|--7-6----|--6-5----||---S-||
G|---------|---------|---------|---------|---------||----T||
C|---------|---------|---------|---------|---------||-----||

*******************************************************************************
  7/8
 Note: See chord chart below

G|------6------6----|------7------7----|------8------8----|------7------7----||
E|--6------6--------|--6------6--------|--6------6--------|--6------6--------||
A|9---9---9---9-----|9---9---9---9-----|9---9---9---9-----|9---9---9---9-----||
D|------------------|------------------|------------------|------------------||
G|------------------|------------------|------------------|------------------||
C|------------------|------------------|------------------|------------------||

G|------6------6----|------7------7----|------8------8----|------9------9----||
E|--6------6--------|--6------6--------|--6------6--------|--6------6--------||
A|9---9---9---9-----|9---9---9---9-----|9---9---9---9-----|9---9---9---9-----||
D|------------------|------------------|------------------|------------------||
G|------------------|------------------|------------------|------------------||
C|------------------|------------------|------------------|------------------||

G|------10-----10---|------10-----10---|------10-----10---|------10-----10---||
E|--10-----10-------|--12-----12-------|--12-----12-------|--12-----12-------||
A|10--10--10--10----|10--10--10--10----|13--13--13--13----|11--11--11--11----||
D|------------------|------------------|------------------|------------------||
G|------------------|------------------|------------------|------------------||
C|------------------|------------------|------------------|------------------||

G|------12-----12---|------12-----12---|------13-----13---|------13-----13---||
E|--12-----12-------|--13-----13-------|--15-----15-------|--15-----15-------||
A|10--10--10--10----|11--11--11--11----|13--13--13--13----|16--16--16--16----||
D|------------------|------------------|------------------|------------------||
G|------------------|------------------|------------------|------------------||
C|------------------|------------------|------------------|------------------||

G|------13-----13---|------15-----15---|------15-----15---|------16-----16---||
E|--15-----15-------|--15-----15-------|--15-----15-------|--15-----15-------||
A|14--14--14--14----|13--13--13--13----|14--14--14--14----|13--13--13--13----||
D|------------------|------------------|------------------|------------------||
G|------------------|------------------|------------------|------------------||
C|------------------|------------------|------------------|------------------||

                     3/4
G|------16------16--|------16||
E|--15------15------|----15--||
A|13--13--13--13----|--13----||
D|------------------|--------||
G|------------------|--------||
C|------------------|--------||

*******************************************************************************
  4/4

  G
G|------------------|----15------------|----16------------|----17------------||
E|------------------|----17br-(1)------|----18br----------|----19br----------||
A|------------------|------------------|------------------|------------------||
D|------------------|------------------|------------------|------------------||
G|0-0------0-0------|0-0------0-0------|0-0------0-0------|0-0------0-0--/14\||
C|------------------|------------------|------------------|------------------||

*******************************************************************************
  Main Theme

G|------------------|------------------||
E|------------------|------------------||
A|----9--8----8--7--|----7--5----------||
D|----12-11---11-10-|----10-8----------||
G|0-0------0-0------|0-0------0-0--/14\||
C|------------------|------------------||

G|------------------|------------------||
E|------------------|------------------||
A|----9--8-----8--6-|----6-5-----------||
D|----12-11----11-9-|----9-8-----------||
G|0-0------0-0------|0-0------0-0--/11\||
C|------------------|------------------||

G|------------------|------------------||
E|------------------|------------------||
A|----10-9----9--8--|----8--7----------||
D|----13-12---12-11-|----11-10---------||
G|0-0------0-0------|0-0------0-0--/14\||
C|------------------|------------------||

G|------------------|------------------||
E|------------------|------------------||
A|----9--8----8--7--|----7--5----------||
D|----12-11---11-10-|----10-8----------||
G|0-0------0-0------|0-0------0-0------||
C|------------------|--------------/12\||

  2/4
G|---------|---------|---------|---------||
E|---------|---------|---------|---------||
A|----5/6-5|-----5--4|-----4--3|---------||
D|----8/9-8|-----8--7|-----7--6|---------||
G|---------|---------|---------|---------||
C|4-4------|---------|---------|-1-1-2-3-||

G|---------|---------|---------|---------||
E|---------|---------|---------|---------||
A|----5/6-5|-----5--4|-----4--3|---------||
D|----8/9-8|-----8--7|-----7--6|---------||
G|---------|---------|---------|---------||
C|4-4------|---------|---------|-1-1-2-3-||

  4/4                                                2/4
G|---------|---------|---------|---------|---------||-----||
E|---------|---------|---------|---------|---------||-R---||
A|--5-1----|--1-5----|--5-4----|--4-3----|--3-2----||--E--||
D|--8-4----|--4-8----|--8-7----|--7-6----|--6-5----||---S-||
G|---------|---------|---------|---------|---------||----T||
C|4--------|---------|---------|---------|---------||-----||

*******************************************************************************
  7/8
 Note: See chord chart below


G|------1------1----|------2------2----|------3------3----|------2------2----||
E|--1------1--------|--1------1--------|--1------1--------|--1------1--------||
A|4---4---4---4-----|4---4---4---4-----|4---4---4---4-----|4---4---4---4-----||
D|------------------|------------------|------------------|------------------||
G|------------------|------------------|------------------|------------------||
C|------------------|------------------|------------------|------------------||

G|------1------1----|------2------2----|------3------3----|------4------4----||
E|--1------1--------|--1------1--------|--1------1--------|--1------1--------||
A|4---4---4---4-----|4---4---4---4-----|4---4---4---4-----|4---4---4---4-----||
D|------------------|------------------|------------------|------------------||
G|------------------|------------------|------------------|------------------||
C|------------------|------------------|------------------|------------------||

G|------5------5----|------5------5----|------5------5----|------5------5----||
E|--5------5--------|--7------7--------|--7------7--------|--7------7--------||
A|5---5---5---5-----|5---5---5---5-----|8---8---8---8-----|7---7---7---7-----||
D|------------------|------------------|------------------|------------------||
G|------------------|------------------|------------------|------------------||
C|------------------|------------------|------------------|------------------||

G|------8------8----|------8------8----|------8------8----|------8------8----||
E|--10-----10-------|--10-----10-------|--10-----10-------|--10-----10-------||
A|10--10--10--10----|9---9---9---9-----|9---9---9---9-----|8---8---8---8-----||
D|------------------|------------------|------------------|------------------||
G|------------------|------------------|------------------|------------------||
C|------------------|------------------|------------------|------------------||

G|------11-----11---|------11-----11---|------11-----11---|------11-----11---||
E|--11-----11-------|--13-----13-------|--13-----13-------|--13-----13-------||
A|11--11--11--11----|11--11--11--11----|14--14--14--14----|12--12--12--12----||
D|------------------|------------------|------------------|------------------||
G|------------------|------------------|------------------|------------------||
C|------------------|------------------|------------------|------------------||

G|------13-----13---|------13-----13---|------14-----14---|------14-----14---||
E|--13-----13-------|--14-----14-------|--16-----16-------|--16-----16-------||
A|11--11--11--11----|12--12--12--12----|14--14--14--14----|17--17--17--17----||
D|------------------|------------------|------------------|------------------||
G|------------------|------------------|------------------|------------------||
C|------------------|------------------|------------------|------------------||

G|------14-----14---|------14-----14---|------16-----16---|------16-----16---||
E|--16-----16-------|--16-----16-------|--16-----16-------|--16-----16-------||
A|16--16--16--16----|15--15--15--15----|14--14--14--14----|15--15--15--15----||
D|------------------|------------------|------------------|------------------||
G|------------------|------------------|------------------|------------------||
C|------------------|------------------|------------------|------------------||
  
G|------17------17--|------17------17--||
E|--16------16------|--16------16------||
A|15--15--15--15----|15--15--15--15----||
D|------------------|------------------||
G|------------------|------------------||
C|------------------|------------------||

*******************************************************************************
  6/8

G|----------------17|------------------|------------------|------------------||
E|-------------14---|18-17----17--14---|13-12----12--9----|-8--7-----7--4----||
A|----------14------|------17--------14|------12--------9-|-------7--------4-||
D|------------------|------------------|------------------|------------------||
G|------------------|------------------|------------------|------------------||
C|------------------|------------------|------------------|------------------||

  8/4
G|------------------||
E|---R--------------||
A|------E-----------||
D|---------S--------||
G|------------T-----||
C|------------------||

  6/8
G|------------------|------------------|------------------||
E|------------------|------------------|------------------||
A|15-14----14--11---|10--9-----9--6----|-5--4-----4--1----||
D|------14--------11|-------9--------6-|-------4--------1-||
G|------------------|------------------|------------------||
C|------------------|------------------|------------------||

  8/4
G|------------------||
E|---R--------------||
A|------E-----------||
D|---------S--------||
G|------------T-----||
C|------------------||

  6/8
G|------------------|------------------|------------------||
E|------------------|------------------|------------------||
A|17-16----16--13---|12--11----11-8----|-7--6-----6--3----||
D|------16--------13|-------11-------8-|-------6--------3-||
G|------------------|------------------|------------------||
C|------------------|------------------|------------------||

*******************************************************************************
*******************************************************************************

Chord Chart for clean section
Part I

+-+-+-+-+-+     +-+-+-+-+-+     +-+-+-+-+-+     +-+-+-+-+-+
| | | | O O 6fr | | | | O | 6fr | | | | O | 6fr | | | | O | 6fr
+-+-+-+-+-+     +-+-+-+-+-+     +-+-+-+-+-+     +-+-+-+-+-+
| | | | | |     | | | | | O     | | | | | |     | | | | | O
+-+-+-+-+-+     +-+-+-+-+-+     +-+-+-+-+-+     +-+-+-+-+-+
| | | | | |     | | | | | |     | | | | | O     | | | | | |
+-+-+-+-+-+     +-+-+-+-+-+     +-+-+-+-+-+     +-+-+-+-+-+
| | | O | |     | | | O | |     | | | O | |     | | | O | |
+-+-+-+-+-+     +-+-+-+-+-+     +-+-+-+-+-+     +-+-+-+-+-+
x x x           x x x           x x x           x x x


+-+-+-+-+-+     +-+-+-+-+-+     +-+-+-+-+-+     +-+-+-+-+-+
| | | | O O 6fr | | | | O | 6fr | | | | O | 6fr | | | | O | 6fr
+-+-+-+-+-+     +-+-+-+-+-+     +-+-+-+-+-+     +-+-+-+-+-+
| | | | | |     | | | | | O     | | | | | |     | | | | | |
+-+-+-+-+-+     +-+-+-+-+-+     +-+-+-+-+-+     +-+-+-+-+-+
| | | | | |     | | | | | |     | | | | | O     | | | | | |
+-+-+-+-+-+     +-+-+-+-+-+     +-+-+-+-+-+     +-+-+-+-+-+
| | | O | |     | | | O | |     | | | O | |     | | | O | O
+-+-+-+-+-+     +-+-+-+-+-+     +-+-+-+-+-+     +-+-+-+-+-+
x x x           x x x           x x x           x x x

*******************************************************************************

+-+-+-+-+-+     +-+-+-+-+-+     +-+-+-+-+-+     +-+-+-+-+-+
| | | O O O 10  | | | O | O 10  | | | | | O 10  | | | | | O 10
+-+-+-+-+-+     +-+-+-+-+-+     +-+-+-+-+-+     +-+-+-+-+-+
| | | | | |     | | | | | |     | | | | | |     | | | O | |
+-+-+-+-+-+     +-+-+-+-+-+     +-+-+-+-+-+     +-+-+-+-+-+
| | | | | |     | | | | O |     | | | | O |     | | | | O |
+-+-+-+-+-+     +-+-+-+-+-+     +-+-+-+-+-+     +-+-+-+-+-+
| | | | | |     | | | | | |     | | | O | |     | | | | | |
+-+-+-+-+-+     +-+-+-+-+-+     +-+-+-+-+-+     +-+-+-+-+-+
x x x           x x x           x x x           x x x


+-+-+-+-+-+     +-+-+-+-+-+     +-+-+-+-+-+     +-+-+-+-+-+
| | | O | | 10  | | | O | | 11  | | | O | O 13  | | | | | O 13
+-+-+-+-+-+     +-+-+-+-+-+     +-+-+-+-+-+     +-+-+-+-+-+
| | | | | |     | | | | | O     | | | | | |     | | | | | |
+-+-+-+-+-+     +-+-+-+-+-+     +-+-+-+-+-+     +-+-+-+-+-+
| | | | O O     | | | | O |     | | | | O |     | | | | O |
+-+-+-+-+-+     +-+-+-+-+-+     +-+-+-+-+-+     +-+-+-+-+-+
| | | | | |     | | | | | |     | | | | | |     | | | O | |
+-+-+-+-+-+     +-+-+-+-+-+     +-+-+-+-+-+     +-+-+-+-+-+
x x x           x x x           x x x           x x x


+-+-+-+-+-+     +-+-+-+-+-+    +-+-+-+-+-+     +-+-+-+-+-+
| | | | | O 13  | | | O | | 13 | | | O | | 14  | | | O | | 13
+-+-+-+-+-+     +-+-+-+-+-+    +-+-+-+-+-+     +-+-+-+-+-+
| | | O | |     | | | | | |    | | | | O O     | | | | | |
+-+-+-+-+-+     +-+-+-+-+-+    +-+-+-+-+-+     +-+-+-+-+-+
| | | | O |     | | | | O O    | | | | | |     | | | | O |
+-+-+-+-+-+     +-+-+-+-+-+    +-+-+-+-+-+     +-+-+-+-+-+
| | | | | |     | | | | | |    | | | | | |     | | | | | O
+-+-+-+-+-+     +-+-+-+-+-+    +-+-+-+-+-+     +-+-+-+-+-+
x x x           x x x


*******************************************************************************
*******************************************************************************
Part II

===========     ===========     ===========     ===========
| | | | O O 1st | | | | O | 1st | | | | O | 1st | | | | O | 1st 
+-+-+-+-+-+     +-+-+-+-+-+     +-+-+-+-+-+     +-+-+-+-+-+
| | | | | |     | | | | | O     | | | | | |     | | | | | O
+-+-+-+-+-+     +-+-+-+-+-+     +-+-+-+-+-+     +-+-+-+-+-+
| | | | | |     | | | | | |     | | | | | O     | | | | | |
+-+-+-+-+-+     +-+-+-+-+-+     +-+-+-+-+-+     +-+-+-+-+-+
| | | O | |     | | | O | |     | | | O | |     | | | O | |
+-+-+-+-+-+     +-+-+-+-+-+     +-+-+-+-+-+     +-+-+-+-+-+
x x x           x x x           x x x           x x x


===========     ===========     ===========     ===========
| | | | O O 1st | | | | O | 1st | | | | O | 1st | | | | O | 1st 
+-+-+-+-+-+     +-+-+-+-+-+     +-+-+-+-+-+     +-+-+-+-+-+
| | | | | |     | | | | | O     | | | | | |     | | | | | |
+-+-+-+-+-+     +-+-+-+-+-+     +-+-+-+-+-+     +-+-+-+-+-+
| | | | | |     | | | | | |     | | | | | O     | | | | | |
+-+-+-+-+-+     +-+-+-+-+-+     +-+-+-+-+-+     +-+-+-+-+-+
| | | O | |     | | | O | |     | | | O | |     | | | O | O
+-+-+-+-+-+     +-+-+-+-+-+     +-+-+-+-+-+     +-+-+-+-+-+
x x x           x x x           x x x           x x x

*******************************************************************************

+-+-+-+-+-+     +-+-+-+-+-+     +-+-+-+-+-+     +-+-+-+-+-+
| | | O O O 5fr | | | O | O 5fr | | | | | O 5fr | | | | | O 5fr
+-+-+-+-+-+     +-+-+-+-+-+     +-+-+-+-+-+     +-+-+-+-+-+
| | | | | |     | | | | | |     | | | | | |     | | | | | |
+-+-+-+-+-+     +-+-+-+-+-+     +-+-+-+-+-+     +-+-+-+-+-+
| | | | | |     | | | | O |     | | | | O |     | | | O O |
+-+-+-+-+-+     +-+-+-+-+-+     +-+-+-+-+-+     +-+-+-+-+-+
| | | | | |     | | | | | |     | | | O | |     | | | | | |
+-+-+-+-+-+     +-+-+-+-+-+     +-+-+-+-+-+     +-+-+-+-+-+
x x x           x x x           x x x           x x x


+-+-+-+-+-+     +-+-+-+-+-+     +-+-+-+-+-+     +-+-+-+-+-+
| | | | | O 8fr | | | | | O 8fr | | | | | O 8fr | | | O | O 8fr
+-+-+-+-+-+     +-+-+-+-+-+     +-+-+-+-+-+     +-+-+-+-+-+
| | | | | |     | | | O | |     | | | O | |     | | | | | |
+-+-+-+-+-+     +-+-+-+-+-+     +-+-+-+-+-+     +-+-+-+-+-+
| | | O O |     | | | | O |     | | | | O |     | | | | O |
+-+-+-+-+-+     +-+-+-+-+-+     +-+-+-+-+-+     +-+-+-+-+-+
| | | | | |     | | | | | |     | | | | | |     | | | | | |
+-+-+-+-+-+     +-+-+-+-+-+     +-+-+-+-+-+     +-+-+-+-+-+
x x x           x x x           x x x           x x x


+-+-+-+-+-+     +-+-+-+-+-+     +-+-+-+-+-+     +-+-+-+-+-+
| | | O O O 11  | | | O | O 11  | | | | | O 11  | | | | | O 11
+-+-+-+-+-+     +-+-+-+-+-+     +-+-+-+-+-+     +-+-+-+-+-+
| | | | | |     | | | | | |     | | | | | |     | | | O | |
+-+-+-+-+-+     +-+-+-+-+-+     +-+-+-+-+-+     +-+-+-+-+-+
| | | | | |     | | | | O |     | | | | O |     | | | | O |
+-+-+-+-+-+     +-+-+-+-+-+     +-+-+-+-+-+     +-+-+-+-+-+
| | | | | |     | | | | | |     | | | O | |     | | | | | |
+-+-+-+-+-+     +-+-+-+-+-+     +-+-+-+-+-+     +-+-+-+-+-+
x x x           x x x           x x x           x x x


+-+-+-+-+-+     +-+-+-+-+-+     +-+-+-+-+-+     +-+-+-+-+-+
| | | O | | 11  | | | O | | 12  | | | O | O 14  | | | | | O 14
+-+-+-+-+-+     +-+-+-+-+-+     +-+-+-+-+-+     +-+-+-+-+-+
| | | | | |     | | | | | O     | | | | | |     | | | | | |
+-+-+-+-+-+     +-+-+-+-+-+     +-+-+-+-+-+     +-+-+-+-+-+
| | | | O O     | | | | O |     | | | | O |     | | | | O |
+-+-+-+-+-+     +-+-+-+-+-+     +-+-+-+-+-+     +-+-+-+-+-+
| | | | | |     | | | | | |     | | | | | |     | | | O | |
+-+-+-+-+-+     +-+-+-+-+-+     +-+-+-+-+-+     +-+-+-+-+-+
x x x           x x x           x x x           x x x


+-+-+-+-+-+     +-+-+-+-+-+     +-+-+-+-+-+     +-+-+-+-+-+
| | | | | O 14  | | | | | O 14  | | | O | | 14  | | | O | | 15
+-+-+-+-+-+     +-+-+-+-+-+     +-+-+-+-+-+     +-+-+-+-+-+
| | | | | |     | | | O | |     | | | | | |     | | | | O O
+-+-+-+-+-+     +-+-+-+-+-+     +-+-+-+-+-+     +-+-+-+-+-+
| | | O O |     | | | | O |     | | | | O O     | | | | | |
+-+-+-+-+-+     +-+-+-+-+-+     +-+-+-+-+-+     +-+-+-+-+-+
| | | | | |     | | | | | |     | | | | | |     | | | | | |
+-+-+-+-+-+     +-+-+-+-+-+     +-+-+-+-+-+     +-+-+-+-+-+
x x x           x x x           x x x           x x x


+-+-+-+-+-+
| | | O | | 14
+-+-+-+-+-+
| | | | | |
+-+-+-+-+-+
| | | | O |
+-+-+-+-+-+
| | | | | O
+-+-+-+-+-+
x x x            
Submit corrections


        Vrooom lessons Hard to play? Try these video lessons and learn fast Vrooom lessons
        
↑ Back to top | Tablatures and chords for acoustic guitar and electric guitar, ukulele, drums are parodies/interpretations of the original songs. You may use it for private study, scholarship, research or language learning purposes only