Home » K » King Crimson »

King Crimson - Great Deceiver Bass

Artists:  A B C D E F G H I J K L M N O P Q R S T U V W X Y Z # 

Great Deceiver Bass

(ver. 1) Click to play this song!
King Crimson
 Rating:
4/5 (4 votes)
                the great deceiver by king crimson 

bass by John Wetton


Intro  1

G----------------------|---------------------|
D----------------------|---------------------|
A----7-6-5-----------3-|---7-6-5-----------3-|
E--5-------8-5-3-0-3---|-5-------8-5-3-0-3---|

Intro 2
G--------------------------|-----------------------|
D--------------------------|-----------------------|
A--------------------5-4-3-|-------------------5-3-|
E--0-3-0-3-0-3-0-3-6-------|-0-3-0-3-0-3-0-3-6-----|

Verse  1
G------------------------|
D------------------------|
A------3-3---------3-3---|
E--5-3-----2-5-5-3-----2-|

Verse  2
G----------------------------|
D----------------------------|
A--------3-----3-3---------3-|
E--5-3-2---3h5-----3-5-3-2---|

Chorus
G--------------------------------|-----------------------------|
D----------------------4-6-7-7-6-|---------------------4-7-7-6-|
A--------3-5-------3-5-----------|-------3-5-------3-5---------|
E--5-3-2-----5-3-2---------------|-5-3-2-----5-3-2-------------|

Violin solo
G------------|
D------------|
A--------3-5-|
E--5-3-2-----|
            
Submit corrections

↑ Back to top | Tablatures and chords for acoustic guitar and electric guitar, ukulele, drums are parodies/interpretations of the original songs. You may use it for private study, scholarship, research or language learning purposes only