» » »

King Crimson - Moonchild Tabs

Artists:  A B C D E F G H I J K L M N O P Q R S T U V W X Y Z # 

Moonchild Tabs

(ver. 1) Click to play this song!
King Crimson
 Rating:
3.2/5 (25 votes)

 Moonchild  lessons Tabs too difficult? Try these video lessons and learn fast
 
                 Intro
  Q=70
  N.C.          Am       Am7         Am6       Fm/maj7/AbAm
 4/4
  Gtr I (El. Gtr. w/ dist.)
  H    Q  Q      Q    Q   +H          +H.          Q
|-------------|------12--(12)------|-(12)--------------|
|---------5/--|-10-----------------|-------------------|
|-------------|--------------------|---------------9---|
|-------------|--------------------|-------------------|
|-------------|--------------------|-------------------|
|-------------|--------------------|-------------------|
|
| Gtr II (Clean El. Gtr.)
| W              E E  Q    E  E Q      E  E Q  E E E E
|-------------|--------------------|-------------------|
|-------------|-------5---------5--|--------5------5---|
|-------------|-------5---------5--|--------5------5---|
|-------------|----2----------5----|------4------3---3-|
|-------------|--0---------0-------|---0---------------|
|-------------|--------------------|-----------4-------|


            Am7      Am6       Fm/maj7/Ab
   Q    H.            +W
|------12----------|-(12)----------------||
|-10---------------|---------------------||
|------------------|---------------------||
|------------------|---------------------||
|------------------|---------------------||
|------------------|---------------------||
|
|  E E  Q   E E Q      E  E Q  E E E E
|------------------|---------------------||
|-------5-------5--|--------5------5-----||
|-------5-------5--|--------5------5-----||
|----2--------5----|------4------3---3---||
|--0--------0------|---0-----------------||
|------------------|-----------4---------||


   1st & 2nd Verses
    Am        Am7      Am6       Fm/maj7/AbAm
     +W                 +W
||--(12)-------------|-(12)--------------|
||o------------------|-------------------|
||-------------------|-------------------|
||-------------------|-------------------|
||o------------------|-------------------|
||-------------------|-------------------|
|
|     E  E Q  E E Q      E  E Q  E E E E
||-------------------|-------------------|
||o--------5------5--|--------5------5---|
||---------5------5--|--------5------5---|
||-------2------5----|------4------3---3-|
||o---0-------0------|---0---------------|
||-------------------|-----------4-------|


            Am7      Am6       Fm/maj7/Ab
   +W                 +W
|-(12)-------------|-(12)---------------|
|------------------|--------------------|
|------------------|--------------------|
|------------------|--------------------|
|------------------|--------------------|
|------------------|--------------------|
|
|   E  E Q  E E Q      E  E Q  E E E E
|------------------|--------------------|
|--------5------5--|--------5------5----|
|--------5------5--|--------5------5----|
|------2------5----|------4------3---3--|
|---0-------0------|---0----------------|
|------------------|-----------4--------|


  Am        Am7      Am6       Fm/maj7/AbAm
   +W                 +W
|-(12)-------------|-(12)--------------|
|------------------|-------------------|
|------------------|-------------------|
|------------------|-------------------|
|------------------|-------------------|
|------------------|-------------------|
|
|   E  E Q  E E Q      E  E Q  E E E E
|------------------|-------------------|
|--------5------5--|--------5------5---|
|--------5------5--|--------5------5---|
|------2------5----|------4------3---3-|
|---0-------0------|---0---------------|
|------------------|-----------4-------|


            Am7        Am6       Fm/maj7/Ab
   +Q    Q   Q    Q     +W
|-(12)-----------12--|-(12)--------------||
|-----------10-------|-------------------||
|--------9-----------|-------------------||
|--------------------|-------------------||
|--------------------|-------------------||
|--------------------|-------------------||
|
|   E  E Q   E E  Q      E  E Q  E E E E
|--------------------|-------------------||
|--------5--------5--|--------5------5---||
|--------5--------5--|--------5------5---||
|------2-------5-----|------4------3---3-||
|---0--------0-------|---0---------------||
|--------------------|-----------4-------||


 Chorus
  Dm     Em7      Am G  Fmaj7  Dm     Em7      Am N.C.
  Gtr II
  E E Q  E E Q    Q  Q  H      E E Q  E E Q    Q  H.
|---------------|------------|---------------|----------|
|-----6------8--|-5--3--1----|-----6------8--|-1--------|
|-----5------7--|-5--4--2----|-----5------7--|-2--------|
|---7------9----|-7--5--2----|---7------9----|-2--------|
|-5------7------|-7--5-------|-5------7------|-0--------|
|---------------|-5--3--1----|---------------|----1-----|


                                              1.
  Dm     Em7      Am G  Fmaj7  Dm     Em7      FmaN.C.
  Gtr I
  W               W            W               H      Q  Q
|---------------|------------|---------------|---------------||
|---------------|------------|---------------|-----------5/--||
|---------------|------------|---------------|---------------||
|---------------|------------|---------------|---------------||
|---------------|------------|---------------|---------------||
|---------------|------------|---------------|---------------||
|
| Gtr II
| E E Q  E E Q    Q  Q  H      E E Q  E E Q    Q  H.
|---------------|------------|---------------|---------------||
|-----6------8--|-5--3--1----|-----6------8--|-1-------------||
|-----5------7--|-5--4--2----|-----5------7--|-2-------------||
|---7------9----|-7--5--2----|---7------9----|-2-------------||
|-5------7------|-7--5-------|-5------7------|---------------||
|---------------|-5--3--1----|---------------|-1--0----------||


 Interlude
  Am       Am7         Am6       Fm/maj7/Ab
   Q    Q   +H          +H.           E  E
|------12--(12)------|-(12)----------13-16-|
|-10-----------------|---------------------|
|--------------------|---------------------|
|--------------------|---------------------|
|--------------------|---------------------|
|--------------------|---------------------|
|
|  E E  Q    E  E Q      E  E Q  E E  Q
|--------------------|---------------------|
|-------5---------5--|--------5-------5----|
|-------5---------5--|--------5-------5----|
|----2----------5----|------4------3-------|
|--0---------0-------|---0-----------------|
|--------------------|-----------4---------|


  Am            Am7       Am6       Fm/maj7/Ab
   E  E  +H        E  E    +H.           E  E
|-16-20-(20)------17-19-|-(19)----------20-17-|
|-----------------------|---------------------|
|-----------------------|---------------------|
|-----------------------|---------------------|
|-----------------------|---------------------|
|-----------------------|---------------------|
|
|  E  E   Q   E E  Q        E  E Q  E E  Q
|-----------------------|---------------------|
|---------5--------5----|--------5-------5----|
|---------5--------5----|--------5-------5----|
|-----2---------5-------|------4------3-------|
|--0----------0---------|---0-----------------|
|-----------------------|-----------4---------|


  Am          Am7       Am6        Fm/maj7/AAm
   E  E  H       E  E    H       a H
|-17s12-12------------|-------------------|
|---------------13-15-|-15------13s9------|
|---------------------|-------------------|
|---------------------|-------------------|
|---------------------|-------------------|
|---------------------|-------------------|
|
|  E  E  Q  E E  Q       E E Q     E E Q
|---------------------|-------------------|
|--------5-------5----|------5---------5--|
|--------5-------5----|------5---------5--|
|-----2-------5-------|----4---------3----|
|--0--------0---------|--0----------------|
|---------------------|------------4------|


              Am7    Am6         Fm/maj7/Ab
   Q    H.            +W
|------12----------|-(12)---------------||
|-10---------------|-------------------o||
|------------------|--------------------||
|------------------|--------------------||
|------------------|-------------------o||
|------------------|--------------------||
|
|  E E  Q   E E Q      E  E Q  E E Q
|------------------|--------------------||
|-------5-------5--|--------5------5---o||
|-------5-------5--|--------5------5----||
|----2--------5----|------4------3------||
|--0--------0------|---0---------------o||
|------------------|-----------4--------||


  2.
  FmaN.C.
  Q  Q   Q    Q     +W
|------------12--|-(12)----*|
|----5s=10-------|---------*|
|----------------|---------*|
|----------------|---------*|
|----------------|---------*|
|----------------|---------*|
|
| Q  Q  +H          +W
|----------------|---------*|
|-1--------------|---------*|
|-2--------------|---------*|
|-2--------------|---------*|
|----0--(0)------|--(0)----*|
|-1--------------|---------*|            
Submit corrections


        Moonchild  lessons Hard to play? Try these video lessons and learn fast Moonchild  lessons
        
↑ Back to top | Tablatures and chords for acoustic guitar and electric guitar, ukulele, drums are parodies/interpretations of the original songs. You may use it for private study, scholarship, research or language learning purposes only