» » »

King Crimson - Indoor Games Tabs

Artists:  A B C D E F G H I J K L M N O P Q R S T U V W X Y Z # 

Indoor Games Tabs

(ver. 1) Click to play this song!
King Crimson
 Rating:
4.3/5 (12 votes)

 Indoor Games  lessons Tabs too difficult? Try these video lessons and learn fast
 
                e|----------------------------|------------------------|
B|----------------------------|------------------------|
G|----6----------4----- 2-----|--6----------4------2---|
D|----7-7-5------5-4-- -4-2---|--7-7-5------5-4----4-2-|
A|--0----------0------0-------|0----------0------0-----|
E|----------------------------|------------------------|

(when you ride......armor playing)|(indoor games)
e|--------------------------------|--3---5---5-------------------------------|
B|---------------7----------------|--5---7---5-------------------------------|
G|-7---------5----7--------5------|--5---7---6-------------------------------|
D|--7-------7------5------7-------|--5---7---7-------------------------------|
A|---5-----7--------5----7--------|--3---5---7-------------------------------|
E|----5---5-------------5---------|--3---5---5-------------------------------|

            
Submit corrections


        Indoor Games  lessons Hard to play? Try these video lessons and learn fast Indoor Games  lessons
        
↑ Back to top | Tablatures and chords for acoustic guitar and electric guitar, ukulele, drums are parodies/interpretations of the original songs. You may use it for private study, scholarship, research or language learning purposes only