» » »

King Crimson - Frakctured Tabs

Artists:  A B C D E F G H I J K L M N O P Q R S T U V W X Y Z # 

Frakctured Tabs

(ver. 1) Click to play this song!
King Crimson
 Rating:
4/5 (4 votes)

 Frakctured lessons Tabs too difficult? Try these video lessons and learn fast
 
                FRAKCTURED-King Crimson 

Duration Legend
---------------
W - whole; 
H - half; 
Q - quarter; 
E - 8th; 
S - 16th; 
T - 32nd; 
X - 64th; 
a - acciaccatura
+ - note tied to previous; 
. - note dotted;
.. - note double dotted

 |  - bar
||  - double bar
*|  - double bar (ending)

Guitar 1(Fripp) Down 2 Full Steps (Low to High-C F Bb Eb G C)
Guitar 2(Belew) Standard(Low to High-E A D G B E)

  137 BPM (Quarter Note)
 10/4
  (Fripp)
   Q   H       H      H      H      Q
|-------------12-----10----------------|
|-----11----------------------------9--|
|----------------------------9---------|
|--------------------------------------|
|--------------------------------------|
|--------------------------------------|
|  (Belew)                             |
|  H       H      H       H      H     |
|-------------------------------10-----|
|-11--------------9--------------------|
|------------------------11------------|
|---------10---------------------------|
|--------------------------------------|
|--------------------------------------|


  +Q    H       H      W         Q
|--------------12-----14------------|
|-(9)--11---------------------------|
|-----------------------------------|
|-----------------------------------|
|-----------------------------------|
|-----------------------------------|
|                                   |
|  H        H      H      W         |
|-------------------------8---------|
|-11---------------9----------------|
|-----------------------------------|
|----------10-----------------------|
|-----------------------------------|
|-----------------------------------|


   Q   H       H      H       H       Q
|----------------------------------------|
|-------------17-----15------------------|
|-----15-----------------------------13--|
|----------------------------14----------|
|----------------------------------------|
|----------------------------------------|
|                                        |
|  H       H      H       H       H      |
|--------------------------------10------|
|-11--------------9----------------------|
|------------------------11--------------|
|---------10-----------------------------|
|----------------------------------------|
|----------------------------------------|


   +Q    H       H      W          Q
|---------------14-----16-------------|
|-------11----------------------------|
|-(13)--------------------------------|
|-------------------------------------|
|-------------------------------------|
|-------------------------------------|
|                                     |
|   H        H      H       W         |
|-------------------8------10---------|
|--11---------------------------------|
|-------------------------------------|
|-----------10------------------------|
|-------------------------------------|
|-------------------------------------|


   Q   H      H       H      H      Q
|------------16------15----------------|
|----------------------------------15--|
|-----17--------------------13---------|
|--------------------------------------|
|--------------------------------------|
|--------------------------------------|
|                                      |
|  H      H       H      H      H      |
|-11----------------------------9------|
|----------------11------9-------------|
|---------9----------------------------|
|--------------------------------------|
|--------------------------------------|
|--------------------------------------|


   +Q    H      H       W          Q
|--------------16------15-------------|
|-(15)--13----------------------------|
|-------------------------------------|
|-------------------------------------|
|-------------------------------------|
|-------------------------------------|
|                                     |
|   H       H       H       W         |
|--11---------------------------------|
|------------------11-----------------|
|-----------9--------------12---------|
|-------------------------------------|
|-------------------------------------|
|-------------------------------------|


   Q   H      H       H      H      Q
|------------16------15----------------|
|-----13---------------------------15--|
|---------------------------13---------|
|--------------------------------------|
|--------------------------------------|
|--------------------------------------|
|                                      |
|  H      H       H      H      H      |
|-11----------------------------9------|
|----------------11------9-------------|
|---------9----------------------------|
|--------------------------------------|
|--------------------------------------|
|--------------------------------------|


   +Q    H      H       W          Q
|--------------16------19-------------|
|-(15)--13----------------------------|
|-------------------------------------|
|-------------------------------------|
|-------------------------------------|
|-------------------------------------|
|                                     |
|   H       H       H       W         |
|--11---------------------------------|
|------------------11------12---------|
|-----------9-------------------------|
|-------------------------------------|
|-------------------------------------|
|-------------------------------------|


   Q   Q   Q   Q   Q   Q   Q   Q   Q   Q
|-------------16------------------18------|
|-19--------------17--19------------------|
|-----19------------------19----------17--|
|---------18------------------18----------|
|-----------------------------------------|
|-----------------------------------------|
|                                         |
|  Q   Q   Q   Q   Q   Q   Q   Q   Q   Q  |
|--------------8------------------10------|
|-11---------------9--11------------------|
|-----11------------------11-----------9--|
|---------10------------------10----------|
|-----------------------------------------|
|-----------------------------------------|


   Q   Q   Q   Q   Q   Q   W
|-------------16------18--16----|
|-19--------------17------------|
|-----19------------------------|
|---------18--------------------|
|-------------------------------|
|-------------------------------|
|                               |
|  Q   Q   Q   Q   Q   Q   W    |
|--------------8------10---8----|
|-11---------------9------------|
|-----11------------------------|
|---------10--------------------|
|-------------------------------|
|-------------------------------|


  E  E  +E   E  +E   E  +E   E  +E   E  +E   E  +E   E  +E   E  +E   E  +E   E
|---14-(14)-----------------16-(16)---------------------------------18-(18)----|
|-----------15-(15)-----------------17-(17)-19-(19)----------------------------|
|-------------------13-(13)-------------------------19-(19)-----------------17-|
|-----------------------------------------------------------18-(18)------------|
|------------------------------------------------------------------------------|
|------------------------------------------------------------------------------|
|                                                                              |
| Q      Q       Q       Q       Q       Q       Q       Q       Q       Q     |
|-6----------------------8--------------------------------------10-------------|
|--------7-----------------------9------11-------------------------------------|
|----------------5------------------------------11-----------------------9-----|
|-------------------------------------------------------10---------------------|
|------------------------------------------------------------------------------|
|------------------------------------------------------------------------------|


   +E   E  +E   E  +E   E  +E   E  +E   E  Q   W
|------------------------------18-(18)-16-20--18----|
|------19-(19)--------------------------------------|
|-(17)---------19-(19)------------------------------|
|----------------------18-(18)----------------------|
|---------------------------------------------------|
|---------------------------------------------------|
|                                                   |
|   Q       Q       Q       Q       Q      Q   W    |
|--------------------------10-------8-----12--10----|
|--11-----------------------------------------------|
|----------11---------------------------------------|
|------------------10-------------------------------|
|---------------------------------------------------|
|---------------------------------------------------|


   Q   Q   Q   Q   Q   Q   Q   Q   Q   Q
|-----------------------------------------|
|-16----------18--------------------------|
|---------------------20----------19------|
|-----18----------20------18----------20--|
|---------20------------------20----------|
|-----------------------------------------|
|                                         |
|  Q   Q   Q   Q   Q   Q   Q   Q   Q   Q  |
|-11----------12------11-----------9------|
|------9----------11-------9----------11--|
|----------9-------------------9----------|
|-----------------------------------------|
|-----------------------------------------|
|-----------------------------------------|


   Q   Q   Q   Q   Q   Q   W
|-------------------------------|
|-------------18----------------|
|-20------------------20--------|
|-----18----------20------------|
|---------20--------------22----|
|-------------------------------|
|                               |
|  Q   Q   Q   Q   Q   Q   W    |
|-11----------12------11--------|
|------9----------11------------|
|----------9--------------12----|
|-------------------------------|
|-------------------------------|
|-------------------------------|


 23/4
   E  E  +E   E  +E   E  +E   E  +E   E  +E   E  +E   E  +E   E  +E   E  +E 
|---------------------------------------------------------------------------|
|----------------------------18-(18)----------------------------------------|
|----20-(20)---------------------------------20-(20)-----------------19-(19)|
|------------18-(18)-----------------20-(20)---------18-(18)----------------|
|--------------------20-(20)---------------------------------20-(20)--------|
|---------------------------------------------------------------------------|
|                                                                           |
|  Q      Q       Q       Q       Q       Q       Q       Q       Q       Q |
|-11---------------------12--------------11-----------------------9---------|
|---------9----------------------11---------------9----------------------11-|
|-----------------9---------------------------------------9-----------------|
|---------------------------------------------------------------------------|
|---------------------------------------------------------------------------|
|---------------------------------------------------------------------------|

   E  +E   E  +E   E  +E   E  +E   E  +E   E  Q   W         +H.
|------------------------------------------------------------------|
|---------------------------------18-(18)----20--------------------|
|---------20-(20)--------------------------------------------------|
|-20-(20)---------18-(18)-----------------20-----21--------(21)----|
|-------------------------20-(20)----------------------------------|
|------------------------------------------------------------------|
|                                                                  |
|      Q       Q       Q       Q       Q      Q   W         +H.    |
|-----11----------------------12-------------15--------------------|
|--------------9----------------------11---------------------------|
|----------------------9-------------------------16--------(16)----|
|------------------------------------------------------------------|
|------------------------------------------------------------------|
|------------------------------------------------------------------|


 24/4
(Fripp)
   Q   H     +W          +Q    Q   W         +H      +Q    H     +W          +H
|-----------------------------------------------------------------------------------|
|-----------------------------------------------------------------------------------|
|-20--------------------------20--------------------------20----(20)--------(20)----|
|-21--------------------------21--------------------------21----(21)--------(21)----|
|-----22----(22)--------(22)------22--------(22)----(22)----------------------------|
|-----------------------------------------------------------------------------------|


(Get Ready To Kill Your Fingers)
 4/4
   S  S  S  S  S  S  S  S  S  S  S  S  S  S  S  S
|-------------------------------------------------|
|-------------------------------------------------|
|-------------------------------------------------|
|-------------------------------------------------|
|-22----------24----------20----------24----22----|
|----23-21-23----23-21-23----23-21-23----23----23-|


   S  S  S  S  S  S  S  S  S  S  S  S  S  S  S  S
|--------------------------------------------------|
|--------------------------------------------------|
|--------------------------------------------------|
|--------------------------------------------------|
|-------24----------20----------24----22-18----18--|
|-21-23----23-21-23----23-21-23----23-------21-----|


   S  S  S  S  S  S  S  S  S  S  S  S  S  S  S  S
|-------------------------------------------------|
|-------------------------------------------------|
|-------------------------------------------------|
|-19----------21----------------------21----19----|
|----20-18-20----20-18-20-22-20-18-20----20----20-|
|-------------------------------------------------|


   S  S  S  S  S  S  S  S  S  S  S  S  S  S  S  S
|-------------------------------------------------|
|-------------------------------------------------|
|-------------------------------------------------|
|-------21----------------------21----19----------|
|-18-20----20-18-20-22-20-18-20----20----20-18-20-|
|-------------------------------------------------|


   S  S  S  S  S  S  S  S  S  S  S  S  S  S  S  S
|-------------------------------------------------|
|-------------------------------------------------|
|-------------17----------------------17----------|
|-20----------------------18----------------20----|
|----19-17-19----19-17-19----19-17-19----19----19-|
|-------------------------------------------------|


   S  S  S  S  S  S  S  S  S  S  S  S  S  S  S  S
|-------------------------------------------------|
|-------------------------------------------------|
|-------17----------------------17----------------|
|-------------------18----------------20----------|
|-17-19----19-17-19----19-17-19----19----19-17-19-|
|-------------------------------------------------|


 7/4
  S  S  S  S  S  S  S  S  S  S  S  S  S  S  S  S  S  S  S  S  S  S  S  S  S  S  S  S
|-----------------------------------------------------------------------------------|
|-----------------------------------------------------------------------------------|
|-----------------------------------------------------------------------------------|
|19----------21----------18----------21----19----------21----------22----------24---|
|---20-18-20----20-18-20----20-18-20----20----20-18-20----20-18-20----23-21-23----23|
|-----------------------------------------------------------------------------------|


 4/4
   S  S  S  S  S  S  S  S  S  S  S  S  S  S  S  S
|-------------------------------------------------|
|-------------------------------------------------|
|-20----------22----------------------22----20----|
|----21-19-21----21-19-21-23-21-19-21----21----21-|
|-------------------------------------------------|
|-------------------------------------------------|


   S  S  S  S  S  S  S  S  S  S  S  S  S  S  S  S
|--------------------------------------------------|
|--------------------------------------------------|
|-------22----------------------22----20-----------|
|-19-21----21-19-21-23-21-19-21----21----21-19-21--|
|--------------------------------------------------|
|--------------------------------------------------|


   S  S  S  S  S  S  S  S  S  S  S  S  S  S  S  S
|-------------------------------------------------|
|-------------20----------------------20----------|
|-22----------------------20----------------22----|
|----21-19-21----21-19-21----21-19-21----21----21-|
|-------------------------------------------------|
|-------------------------------------------------|


   S  S  S  S  S  S  S  S  S  S  S  S  S  S  S  S
|-------------------------------------------------|
|-------20----------------------20----------------|
|-------------------20----------------22----------|
|-19-21----21-19-21----21-19-21----21----21-19-21-|
|-------------------------------------------------|
|-------------------------------------------------|


   S  S  S  S  S  S  S  S  S  S  S  S  S  S  S  S
|-------------16----------12----------16----------|
|----------------13----13----13----13-------19----|
|-23-------17-------15----------15-------17----17-|
|----22-20----------------------------------------|
|-------------------------------------------------|
|-------------------------------------------------|


   S  S  S  S  S  S  S  S  S  S  S  S  S  S  S  S
|-------16----------12----------16----------------|
|----13----------13----13-11-13-------19-------13-|
|-15-------17-15-------------------17----17-15----|
|-------------------------------------------------|
|-------------------------------------------------|
|-------------------------------------------------|


 7/4
   S  S  S  S  S  S  S  S  S  S  E Q   S  S  S  S  S  S  S  S  S  S  S  S
|-13----------15----15----------17----17----------19----20----------22----|
|----14-12-14----14----16-14-16----------18-16-18----18----21-19-21----21-|
|-------------------------------------------------------------------------|
|-------------------------------------------------------------------------|
|-------------------------------------------------------------------------|
|-------------------------------------------------------------------------|


 10/4
 (Fripp) 
  E  E  E  E  E  E  E  E  E  E  E  E  E  E  E  E  E  E  E  E
|-24-23----23----24-23----23----24-23----23----24-23----23----|
|-------21----21-------21----21-------21----21-------21----21-|
|-------------------------------------------------------------|
|-------------------------------------------------------------|
|-------------------------------------------------------------|
|-------------------------------------------------------------|
|
| (Belew)
|  Q     Q     Q     Q     Q     Q     Q     Q     Q     Q
|-------------15----------------------------15----------------|
|-------17----------------17----------17----------------17----|
|-------------------16----------17----------------16----------|
|-------------------------------------------------------------|
|-------------------------------------------------------------|
|-------------------------------------------------------------|


   E  E  E  E  E  E  E  E  E  E  E  E  E  E  E  E  E  E  E  E
|-24-23----23----24-23----23----24-23----23----24-23----23----|
|-------20----20-------20----20-------20----20-------20----20-|
|-------------------------------------------------------------|
|-------------------------------------------------------------|
|-------------------------------------------------------------|
|-------------------------------------------------------------|
|                                                             |
|  Q     Q     Q     Q     Q     Q     Q     Q     Q     Q    |
|-------------15----------------------------15----------------|
|-------16----------------16----------16----------------16----|
|-17----------------16----------17----------------16----------|
|-------------------------------------------------------------|
|-------------------------------------------------------------|
|-------------------------------------------------------------|


   E  E  E  E  E  E  E  E  E  E  E  E  E  E  E  E  E  E  E  E
|-22-21----21----22-21----21----22-21----21----22-21----21----|
|-------19----19-------19----19-------19----19-------19----19-|
|-------------------------------------------------------------|
|-------------------------------------------------------------|
|-------------------------------------------------------------|
|-------------------------------------------------------------|
|                                                             |
|  Q     Q     Q     Q     Q     Q     Q     Q     Q     Q    |
|-------------13----------------------------13----------------|
|-------15----------------15----------15----------------15----|
|-15----------------14----------15----------------14----------|
|-------------------------------------------------------------|
|-------------------------------------------------------------|
|-------------------------------------------------------------|


   E  E  E  E  E  E  E  E  E  E  E  E  E  E  E  E  E  E  E  E
|-22-21----21----22-21----21----22-21----21----22-21----21----|
|-------18----18-------18----18-------18----18-------18----18-|
|-------------------------------------------------------------|
|-------------------------------------------------------------|
|-------------------------------------------------------------|
|-------------------------------------------------------------|
|                                                             |
|  Q     Q     Q     Q     Q     Q     Q     Q     Q     Q    |
|-------------13----------------------------13----------------|
|-------14----------------14----------14----------------14----|
|-15----------------14----------15----------------14----------|
|-------------------------------------------------------------|
|-------------------------------------------------------------|
|-------------------------------------------------------------|


   E  E  E  E  E  E  E  E  E  E  E  E  E  E  E  E  E  E  E  E
|-20-19----19----20-19----19----20-19----19----20-19----19----|
|-------17----17-------17----17-------17----17-------17----17-|
|-------------------------------------------------------------|
|-------------------------------------------------------------|
|-------------------------------------------------------------|
|-------------------------------------------------------------|
|                                                             |
|  Q     Q     Q     Q     Q     Q     Q     Q     Q     Q    |
|-------------11----------------------------11----------------|
|-------13----------------13----------13----------------13----|
|-13----------------12----------13----------------12----------|
|-------------------------------------------------------------|
|-------------------------------------------------------------|
|-------------------------------------------------------------|


 9/4
   E  E  E  E  E  E  E  E  E  E  E  E  E  H     +E
|-20-19----19----20-19----19----20-19----19----(19)-|
|-------16----16-------16----16-------15------------|
|---------------------------------------------------|
|---------------------------------------------------|
|---------------------------------------------------|
|---------------------------------------------------|
|                                                   |
|  Q     Q     Q     Q     Q     Q     E  H     +E  |
|-------------11------------------------------------|
|-------12----------------12-------------11----(11)-|
|-13----------------12----------12----12------------|
|---------------------------------------------------|
|---------------------------------------------------|
|---------------------------------------------------|


 7/4
(Grandmaster Fripp)
   S  S  S  S  S  S  S  S  S  S  S  S  S  S  S  S  S  S  S  S  S  S  S  S  S  S  S  S
|-----------------------------------------------------------------------------------|
|------------------------------------16----------------------------------------14---|
|19----------21----------18----------------17----------19----------16---------------|
|---20-18-20----20-18-20----17-15-17----17----18-16-18----18-16-18----15-13-15----15|
|-----------------------------------------------------------------------------------|
|-----------------------------------------------------------------------------------|


 4/4
   S  S  S  S  S  S  S  S  S  S  S  S  S  S  S  S
|-------------------------------------------------|
|-------------------------------------------------|
|-15----------17----------------------17----15----|
|----16-14-16----16-14-16-18-16-14-16----16----16-|
|-------------------------------------------------|
|-------------------------------------------------|


   S  S  S  S  S  S  S  S  S  S  S  S  S  S  S  S
|--------------------------------------------------|
|--------------------------------------------------|
|-------17----------------------17----15-----------|
|-14-16----16-14-16-18-16-14-16----16----16-14-16--|
|--------------------------------------------------|
|--------------------------------------------------|


   S  S  S  S  S  S  S  S  S  S  S  S  S  S  S  S
|-------------------------------------------------|
|-------------15----------------------15----------|
|-17----------------------15----------------17----|
|----16-14-16----16-14-16----16-14-16----16----16-|
|-------------------------------------------------|
|-------------------------------------------------|


   S  S  S  S  S  S  S  S  S  S  S  S  S  S  S  S
|-------------------------------------------------|
|-------15----------------------15----------------|
|-------------------15----------------17----------|
|-14-16----16-14-16----16-14-16----16----16-14-16-|
|-------------------------------------------------|
|-------------------------------------------------|


   S  S  S S  S  S  S S S S S S  S  S  S  S
|------------11---------7-------11----------|
|-14-------8----------8---8-6-8-------14----|
|----12-10------12-10--------------12----12-|
|-------------------------------------------|
|-------------------------------------------|
|-------------------------------------------|


   S S  S  S  S S S S S S  S  S  S  S  S S
|------11---------7-------11---------------|
|----8----------8---8-6-8-------14-------8-|
|-10------12-10--------------12----12-10---|
|------------------------------------------|
|------------------------------------------|
|------------------------------------------|


 7/4
  S S S S  S S S S S S S S S  S  S  S S S S S S S S S S S S S
|-8-------10-------7-------9--------------8-------5-------7---|
|---9-7-9----9-7-9---6-4-6------11------7---7-5-7---4-2-4-----|
|----------------------------10----11-9---------------------8-|
|-------------------------------------------------------------|
|-------------------------------------------------------------|
|-------------------------------------------------------------|


 4/4
  S S S S S S S S S S S S S S S S   S S S S S S S S S S S S S S S S
|---------6---------------6---4---|-----6---------------6---4--------|
|-9-----5---5-3-5-7-5-3-5---5---5-|-3-5---5-3-5-7-5-3-5---5---5-3-5--|
|---9-7---------------------------|----------------------------------|
|---------------------------------|----------------------------------|
|---------------------------------|----------------------------------|
|---------------------------------|----------------------------------|


  S S S S S S S S S S S S S S S S   S S S S S S S S S S S S S S S S
|-6-------8---------------8---6---|-----8---------------8---6-------|
|---7-5-7---7-5-7-9-7-5-7---7---7-|-5-7---7-5-7-9-7-5-7---7---7-5-7-|
|---------------------------------|---------------------------------|
|---------------------------------|---------------------------------|
|---------------------------------|---------------------------------|
|---------------------------------|---------------------------------|


  S S S S S  S S S S S S S S  S  S  S   S S S  S S S S S S S S  S  S  S S S
|-7-------9--------5-------9----------|-----9--------5-------9--------------|
|---6-4-6--------6---6-4-6------12----|---6--------6---6-4-6------12------6-|
|-----------10-8-------------10----10-|-8-----10-8-------------10----10-8---|
|-------------------------------------|-------------------------------------|
|-------------------------------------|-------------------------------------|
|-------------------------------------|-------------------------------------|


 7/4
  S S S S S S S S S S S S S S S S S S S S S S S S S S S S
|-6-------8-------5-------7-----------5-------2-------4---|
|---7-5-7---7-5-7---4-2-4-----8-----4---4-2-4---1---1-----|
|---------------------------8---8-6---------------3-----5-|
|---------------------------------------------------------|
|---------------------------------------------------------|
|---------------------------------------------------------|


 4/4
  S S S S S S S S S S S S S S S S   S S S S S S S S S S S S S S S S
|---------3---------------3---1---|-----3---------------3---1--------|
|-6-----2---2---2-5-----2---2---2-|---2---2---2-5-----2---2---2---2--|
|---6-4-------4-----6-4-----------|-4-------4-----6-4-----------4----|
|---------------------------------|----------------------------------|
|---------------------------------|----------------------------------|
|---------------------------------|----------------------------------|


  S S S S S S S S S S S S S S S S   S S S S S S S S S S S S S S S S
|---------3-------1-------3-------|-----3-------1-------4---3-------|
|-5-----2---2---2---2---2---2-5---|---2---2---2---2---2---2---2---2-|
|---6-4-------4-------4---------6-|-4-------4-------4-----------4---|
|---------------------------------|---------------------------------|
|---------------------------------|---------------------------------|
|---------------------------------|---------------------------------|


  S S S S S S S S S S S S S S S S   S S S S S S S S S S S S S S S S
|-1-------3---------------3---1---|-----3---------------3---1-------|
|---2---2---2---2-5-----2---2---2-|---2---2---2-5-----2---2---2---2-|
|-----4-------4-----6-4-----------|-4-------4-----6-4-----------4---|
|---------------------------------|---------------------------------|
|---------------------------------|---------------------------------|
|---------------------------------|---------------------------------|


  S S S S S S S S S S E Q    S S S S S S S  S S  S  E Q
|-2-------4---4-------6----|-7-------9---9---------11-----|
|---3-1-3---3---5-3-5------|---8-6-8---8---10-8-10--------|
|--------------------------|------------------------------|
|--------------------------|------------------------------|
|--------------------------|------------------------------|
|--------------------------|------------------------------|


 7/4
   S  S  S  S  S  S  S  S  S  S  E Q   S  S  S  S  S  S  S  S  S  S  S  S
|-12----------14----14----------16----17----------19----20----------22----|
|----13-11-13----13----15-13-15----------18-16-18----18----21-19-21----21-|
|-------------------------------------------------------------------------|
|-------------------------------------------------------------------------|
|-------------------------------------------------------------------------|
|-------------------------------------------------------------------------|


 10/4
(Fripp)
   E  E  E  E  E  E  E  E  E  E  E  E  E  E  E  E  E  E  E  E
|-24-23----23----24-23----23----24-23----23----24-23----23----|
|-------21----21-------21----21-------21----21-------21----21-|
|-------------------------------------------------------------|
|-------------------------------------------------------------|
|-------------------------------------------------------------|
|-------------------------------------------------------------|
|                                                             |
| (Belew)                                                     |
|  Q     Q     Q     Q     Q     Q     Q     Q     Q     Q    |
|-------12----15----------------------------15----------------|
|-13----------------------17----------17----------------17----|
|-------------------16----------17----------------16----------|
|-------------------------------------------------------------|
|-------------------------------------------------------------|
|-------------------------------------------------------------|


   E  E  E  E  E  E  E  E  E  E  E  E  E  E  E  E  E  E  E  E
|-24-23----23----24-23----23----24-23----23----24-23----23----|
|-------------------------------------------------------------|
|-------24----24-------24----24-------24----24-------24----24-|
|-------------------------------------------------------------|
|-------------------------------------------------------------|
|-------------------------------------------------------------|
|                                                             |
|  Q     Q     Q     Q     Q     Q     Q     Q     Q     Q    |
|-------------15----------------------------15----------------|
|-------16----------------16----------16----------------16----|
|-17----------------16----------17----------------16----------|
|-------------------------------------------------------------|
|-------------------------------------------------------------|
|-------------------------------------------------------------|


   E  E  E  E  E  E  E  E  E  E  E  E  E  E  E  E  E  E  E  E
|-22-21----21----22-21----21----22-21----21----22-21----21----|
|-------19----19-------19----19-------19----19-------19----19-|
|-------------------------------------------------------------|
|-------------------------------------------------------------|
|-------------------------------------------------------------|
|-------------------------------------------------------------|
|                                                             |
|  Q     Q     Q     Q     Q     Q     Q     Q     Q     Q    |
|-------------13----------------------------13----------------|
|-------15----------------15----------15----------------15----|
|-15----------------14----------15----------------14----------|
|-------------------------------------------------------------|
|-------------------------------------------------------------|
|-------------------------------------------------------------|


   E  E  E  E  E  E  E  E  E  E  E  E  E  E  E  E  E  E  E  E
|-22-21----21----22-21----21----22-21----21----22-21----21----|
|-------------------------------------------------------------|
|-------22----22-------22----22-------22----22-------22----22-|
|-------------------------------------------------------------|
|-------------------------------------------------------------|
|-------------------------------------------------------------|
|                                                             |
|  Q     Q     Q     Q     Q     Q     Q     Q     Q     Q    |
|-------------13----------------------------13----------------|
|-------14----------------14----------14----------------14----|
|-15----------------14----------15----------------14----------|
|-------------------------------------------------------------|
|-------------------------------------------------------------|
|-------------------------------------------------------------|


   E  E  E  E  E  E  E  E  E  E  E  E  E  E  E  E  E  E  E  E
|----------18----19-18----18----19-18----18----19-18----18----|
|-24-23-------16-------16----16-------16----16-------16----16-|
|-------20----------------------------------------------------|
|-------------------------------------------------------------|
|-------------------------------------------------------------|
|-------------------------------------------------------------|
|                                                             |
|  Q     Q     Q     Q     Q     Q     Q     Q     Q     Q    |
|-------------10----------------------------10----------------|
|-------12----------------12----------12----------------12----|
|-12----------------11----------12----------------11----------|
|-------------------------------------------------------------|
|-------------------------------------------------------------|
|-------------------------------------------------------------|


 9/4
   E  E  E  E  E  E  E  E  E  E  E  E  E  H     +E
|-19-18----18----19-18----18----19-18----18----(18)-|
|---------------------------------------------------|
|-------19----19-------19----19-------18------------|
|---------------------------------------------------|
|---------------------------------------------------|
|---------------------------------------------------|
|                                                   |
|  Q     Q     Q     Q     Q     Q     E  H     +E  |
|-------------10------------------------------------|
|-------11----------------11-------------10----(10)-|
|-12----------------11----------11----11------------|
|---------------------------------------------------|
|---------------------------------------------------|
|---------------------------------------------------|


 7/4
(Frippington)
  S  S  S  S  S  S  S  S  S  S  S  S  S  S  S  S  S  S  S  S  S  S  S  S  S  S  S  S
|-----------------------------------------------------------------------------------|
|------------------------------------15----------------------------------------12---|
|18----------20----------17----------------15----------17----------14---------------|
|---19-17-19----19-17-19----16-14-16----16----16-14-16----16-14-16----13-11-13----13|
|-----------------------------------------------------------------------------------|
|-----------------------------------------------------------------------------------|


 4/4
   S  S  S  S  S  S  S  S  S  S  S  S  S  S  S  S
|-------------------------------------------------|
|-------------------------------------------------|
|-13----------15----------------------15----13----|
|----14-12-14----14-12-14-16-14-12-14----14----14-|
|-------------------------------------------------|
|-------------------------------------------------|


   S  S  S  S  S  S  S  S  S  S  S  S  S  S  S  S
|--------------------------------------------------|
|--------------------------------------------------|
|-------15----------------------15----13-----------|
|-12-14----14-12-14-16-14-12-14----14----14-12-14--|
|--------------------------------------------------|
|--------------------------------------------------|


   S  S  S  S  S  S  S  S  S  S  S  S  S  S  S  S
|-------------------------------------------------|
|-------------------------------------------------|
|-15----------17----------------------17----15----|
|----16-14-16----16-14-16-18-16-14-16----16----16-|
|-------------------------------------------------|
|-------------------------------------------------|


   S  S  S  S  S  S  S  S  S  S  S  S  S  S  S  S
|-------------------------------------------------|
|-------------------------------------------------|
|-------17----------------------17----15----------|
|-14-16----16-14-16-18-16-14-16----16----16-14-16-|
|-------------------------------------------------|
|-------------------------------------------------|


   S  S  S  S  S  S  S  S  S  S  S  S  S  S  S  S
|-------------------------------------------------|
|-------------14----------------------14----------|
|-16----------------------14----------------16----|
|----15-13-15----15-13-15----15-13-15----15----15-|
|-------------------------------------------------|
|-------------------------------------------------|


   S  S  S  S  S  S  S  S  S  S  S  S  S  S  S  S
|-------------------------------------------------|
|-------14----------------------14----------------|
|-------------------14----------------16----------|
|-13-15----15-13-15----15-13-15----15----15-13-15-|
|-------------------------------------------------|
|-------------------------------------------------|


 7/4
   S  S  S  S  S  S  S  S  S  S  S  S  S  S  S  S  S  S  S  S  S  S  S  S S  S S  S
|-----------------------------------------------------------------------------------|
|-------------------------------------12---------------------------------------9----|
|-15----------17----------14----------------12----------14----------11--------------|
|----16-14-16----16-14-16----13-11-13----13----13-11-13----13-11-13----10-8-10---10-|
|-----------------------------------------------------------------------------------|
|-----------------------------------------------------------------------------------|


 4/4
   S  S S  S  S  S S  S S  S S  S  S  S  S  S
|---------------------------------------------|
|---------------------------------------------|
|-10---------12---------9---------12----10----|
|----11-9-11----11-9-11---11-9-11----11----11-|
|---------------------------------------------|
|---------------------------------------------|


  S  S  S  S S  S S  S S  S  S  S  S  S S  S
|---------------------------------------------|
|---------------------------------------------|
|------12---------9---------12----10----------|
|-9-11----11-9-11---11-9-11----11----11-9-11--|
|---------------------------------------------|
|---------------------------------------------|


  S  S S  S  S  S S  S  S  S S  S  S  S S  S
|--------------------------------------------|
|--------------------------------------------|
|-9---------12---------10---------12----9----|
|---11-9-11----11-9-11----11-9-11----11---11-|
|--------------------------------------------|
|--------------------------------------------|


  S  S  S  S S  S  S  S S  S S  S  S  S S  S
|--------------------------------------------|
|----------------------------9---------------|
|------12---------10--------------12---------|
|-9-11----11-9-11----11-9-11---11----11-9-11-|
|--------------------------------------------|
|--------------------------------------------|


   S  S S  S  S  S S  S S  S S  S  S  S  S  S
|---------------------------------------------|
|---------------------------------------------|
|-10---------12---------9---------12----10----|
|----11-9-11----11-9-11---11-9-11----11----11-|
|---------------------------------------------|
|---------------------------------------------|


  S  S  S  S S  S S  S S  S  S  S  S  S S  S
|--------------------------------------------|
|--------------------------------------------|
|------12---------9---------12----10---------|
|-9-11----11-9-11---11-9-11----11----11-9-11-|
|--------------------------------------------|
|--------------------------------------------|


 7/4
   S  S  S  S  S  S  S  S  S S S S S S S S S S  S S S S  S  S S  S  S  S
|----------------------------------7---8-------10-------11---------13----|
|-------------------------10-----4-------9-7-9----9-7-9----10-8-10-------|
|-11----------13-------------8-6-----8--------------------------------14-|
|----12-10-12----12-10-12------------------------------------------------|
|------------------------------------------------------------------------|
|------------------------------------------------------------------------|


   S  S  S  S  S  S  S  S  S  S  S  S  S  S  S  S  S  S  S  S  S  S  S  S S  S  S  S
|-14----------16----------13----------15----------------14----------11---------13---|
|----15-13-15----15-13-15----12-10-12-------17-------13----13-11-13----10-8-10------|
|----------------------------------------16----17-15------------------------------14|
|-----------------------------------------------------------------------------------|
|-----------------------------------------------------------------------------------|
|-----------------------------------------------------------------------------------|


 6/4
   S  S  S  S  S  S S S S S  S  S  S  S  S S  S S S S S S S  S
|-------------12----9-------11---------------10---7-------9----|
|-15-------11----11---8-6-8-------13-------9----9---6-4-6------|
|----15-13---------------------12----13-11------------------10-|
|--------------------------------------------------------------|
|--------------------------------------------------------------|
|--------------------------------------------------------------|


 4/4
   S  S S S S S S S S S S S S S S S   S S S S S S S S S S S S S S S S
|-----------8---------------8---6---|-----8---------------8---6--------|
|-11------7---7-5-7-9-7-5-7---7---7-|-5-7---7-5-7-9-7-5-7---7---7-5-7--|
|----11-9---------------------------|----------------------------------|
|-----------------------------------|----------------------------------|
|-----------------------------------|----------------------------------|
|-----------------------------------|----------------------------------|


  S S S S  S  S S S S S S S  S  S  S  S
|-8-------10--------6-------10----------|
|---7-5-7---------7---7-5-7-------13----|
|------------11-9--------------11----11-|
|---------------------------------------|
|---------------------------------------|
|---------------------------------------|


  S S  S  S S S S S S S  S  S  S  S S S
|-----10--------6-------10--------------|
|---7---------7---7-5-7-------13------7-|
|-9------11-9--------------11----11-9---|
|---------------------------------------|
|---------------------------------------|
|---------------------------------------|


  S S S S  S  S  S S S S S S  S  S  S  S
|-9-------11---------7-------11----------|
|---8-6-8----------8---8-6-8-------14----|
|------------12-10--------------12----12-|
|----------------------------------------|
|----------------------------------------|
|----------------------------------------|


   S S  S  S  S S S S S S  S  S  S  S  S S
|------11---------7-------11---------------|
|----8----------8---8-6-8-------14-------8-|
|-10------12-10--------------12----12-10---|
|------------------------------------------|
|------------------------------------------|
|------------------------------------------|


  S S S S  S S  S  S  S  S  E Q     S  S  S  S  S  S  S  S  S  S  E Q
|-8-------10---11----------13----|-14----------16----17----------19-----|
|---9-7-9----9----12-10-12-------|----15-13-15----15----18-16-18--------|
|--------------------------------|--------------------------------------|
|--------------------------------|--------------------------------------|
|--------------------------------|--------------------------------------|
|--------------------------------|--------------------------------------|


 7/4
   S  S  S  S  S  S  S  S  S  S  S  S  S  S  S  S  S  S  S  S  S  S  S  S  S  S  S  S
|20----------22----------19----------21----------------20----------17----------19---|
|---21-19-21----21-19-21----18-16-18-------23-------19----19-17-19----16-14-16------|
|---------------------------------------22----23-21-------------------------------20|
|-----------------------------------------------------------------------------------|
|-----------------------------------------------------------------------------------|
|-----------------------------------------------------------------------------------|


 6/4
   S  S  S  S  S  S  S  S  S  S  S  S  S  S  S  S  S  S  S  S  S  S  S  S
|-------------18----15----------17----------------16----13----------15----|
|-21-------17----17----14-12-14-------19-------15----15----12-10-12-------|
|----21-19-------------------------18----19-17-------------------------16-|
|-------------------------------------------------------------------------|
|-------------------------------------------------------------------------|
|-------------------------------------------------------------------------|


 10/4
(Fripp)
   E  E  E  E  E  E  E  E  E  E  E  E  E  E  E  E  E  E  E  E
|-16-15----15----16-15----15----16-15----15----16-15----15----|
|-------13----13-------13----13-------13----13-------13----13-|
|-------------------------------------------------------------|
|-------------------------------------------------------------|
|-------------------------------------------------------------|
|-------------------------------------------------------------|
|                                                             |
| (Belew)                                                     |
|  Q     Q     Q     Q     Q     Q     Q     Q     Q     Q    |
|--------------7-----------------------------7----------------|
|--------9-----------------9-----------9-----------------9----|
|--9-----------------8-----------9-----------------8----------|
|-------------------------------------------------------------|
|-------------------------------------------------------------|
|-------------------------------------------------------------|


   E  E  E  E  E  E  E  E  E  E  E  E  E  E  E  E  E  E  E  E
|-16-15----15----16-15----15----16-15----15----16-15----15----|
|-------------------------------------------------------------|
|-------16----16-------16----16-------16----16-------16----16-|
|-------------------------------------------------------------|
|-------------------------------------------------------------|
|-------------------------------------------------------------|
|                                                             |
|  Q     Q     Q     Q     Q     Q     Q     Q     Q     Q    |
|--------------7-----------------------------7----------------|
|--------8-----------------8-----------8-----------------8----|
|--9-----------------8-----------9-----------------8----------|
|-------------------------------------------------------------|
|-------------------------------------------------------------|
|-------------------------------------------------------------|


   E  E  E  E  E  E  E  E  E  E  E  E  E  E  E  E  E  E  E  E
|-14-13----13----14-13----13----14-13----13----14-13----13----|
|-------11----11-------11----11-------11----11-------11----11-|
|-------------------------------------------------------------|
|-------------------------------------------------------------|
|-------------------------------------------------------------|
|-------------------------------------------------------------|
|                                                             |
|  Q     Q     Q     Q     Q     Q     Q     Q     Q     Q    |
|--------------5-----------------------------5----------------|
|--------7-----------------7-----------7-----------------7----|
|--7-----------------6-----------7-----------------6----------|
|-------------------------------------------------------------|
|-------------------------------------------------------------|
|-------------------------------------------------------------|


   E  E  E  E  E  E  E  E  E  E  E  E  E  E  E  E  E  E  E  E
|-14-13----13----14-13----13----14-13----13----14-13----13----|
|-------------------------------------------------------------|
|-------14----14-------14----14-------14----14-------14----14-|
|-------------------------------------------------------------|
|-------------------------------------------------------------|
|-------------------------------------------------------------|
|                                                             |
|  Q     Q     Q     Q     Q     Q     Q     Q     Q     Q    |
|--------------5-----------------------------5----------------|
|--------6-----------------6-----------6-----------------6----|
|--7-----------------6-----------7-----------------6----------|
|-------------------------------------------------------------|
|-------------------------------------------------------------|
|-------------------------------------------------------------|


   E  E E  E E  E  E E  E E  E  E E  E E  E  E E  E E
|-12-11---11---12-11---11---12-11---11---12-11---11---|
|-------9----9-------9----9-------9----9-------9----9-|
|-----------------------------------------------------|
|-----------------------------------------------------|
|-----------------------------------------------------|
|-----------------------------------------------------|
|                                                     |
|  Q    Q    Q     Q    Q    Q    Q    Q     Q    Q   |
|------------3-------------------------3--------------|
|-------5---------------5---------5---------------5---|
|--5---------------4---------5---------------4--------|
|-----------------------------------------------------|
|-----------------------------------------------------|
|-----------------------------------------------------|


   E  E  E  E  E  E  E  E  E  E  E  E  E  E  E  E  E  E  E  E
|-12-11----11----12-11----11----12-11----11----12-11----11----|
|-------------------------------------------------------------|
|-------12----12-------12----12-------12----12-------12----12-|
|-------------------------------------------------------------|
|-------------------------------------------------------------|
|-------------------------------------------------------------|
|                                                             |
|  Q     Q     Q     Q     Q     Q     Q     Q     Q     Q    |
|--------------3-----------------------------3----------------|
|--------4-----------------4-----------4-----------------4----|
|--5-----------------4-----------5-----------------4----------|
|-------------------------------------------------------------|
|-------------------------------------------------------------|
|-------------------------------------------------------------|


   E E E E E  E E E E E  E E E E E  E E E E E
|-10-9---9---10-9---9---10-9---9---10-9---9---|
|------7---7------7---7------7---7------7---7-|
|---------------------------------------------|
|---------------------------------------------|
|---------------------------------------------|
|---------------------------------------------|
|                                             |
|  Q   Q   Q    Q   Q    Q   Q   Q    Q   Q   |
|----------1---------------------1------------|
|------3------------3--------3------------3---|
|--3------------2--------3------------2-------|
|---------------------------------------------|
|---------------------------------------------|
|---------------------------------------------|


   E E  E E  E  E E  E E  E  E E  E E  E  E E  E E  E
|-10-9----9----10-9----9----10-9----9----10-9----9----|
|-----------------------------------------------------|
|------10---10------10---10------10---10------10---10-|
|-----------------------------------------------------|
|-----------------------------------------------------|
|-----------------------------------------------------|
|                                                     |
|  Q    Q    Q    Q    Q     Q    Q    Q    Q    Q    |
|------------1-------------------------1--------------|
|-------2--------------2----------2--------------2----|
|--3--------------2----------3--------------2---------|
|-----------------------------------------------------|
|-----------------------------------------------------|
|-----------------------------------------------------|


  E E E E E E E E E E E E E E E E E E E E
|-8-7---7---8-7---7---8-7---7---8-7---7---|
|-----5---5-----5---5-----5---5-----5---5-|
|-----------------------------------------|
|-----------------------------------------|
|-----------------------------------------|
|-----------------------------------------|
|                                         |
| Q   Q   Q   Q   Q   Q   Q   Q   Q   Q   |
|-----------------------------------------|
|-----1---4-------------------4-----------|
|-1---------------5-------5-----------5---|
|-------------5-------6-----------5-------|
|-----------------------------------------|
|-----------------------------------------|


                                           5/4
  E E E E E E E E E E E E E E E E E E E E   E E E E H.
|-8-7---7---8-7---7---8-7---7---8-7---7---|-7---6---------|
|-----------------------------------------|-------4-------|
|-----8---8-----8---8-----8---8-----8---8-|---8-----4-----|
|-----------------------------------------|---------------|
|-----------------------------------------|---------------|
|-----------------------------------------|---------------|
|                                                         |
| Q   Q   Q   Q   Q   Q   Q   Q   Q   Q     Q   Q   H.    |
|-----------------------------------------|---------------|
|---------4-------------------4-----------|-----3---------|
|-----4-----------4-------4-----------4---|-4-------4-----|
|-6-----------5-------6-----------5-------|---------------|
|-----------------------------------------|---------------|
|-----------------------------------------|---------------|


 15/8
(The Insanity Of Lord Fripp)
  S S S S S S S  S S  S  S  S  S  S  S S S S S S S S  S S  S  S S  S  S  S
|---------------------------------------------------------------------------|
|---------------------------------------------------------------------------|
|---------------------------------------------------------------------------|
|---------4-6------------------------------------6--------------------------|
|---3-5-6----------9-------11-------12---2-3-5-6--------9-------9-------11--|
|-4-----------8-10---10-11----10-11----4-----------8-10---10-11---10-11-----|


  S S S S S S S  S S  S  S  S  S  S  S S S S S S S S S S S S S S S S
|--------------------------------------------------------------------|
|--------------------------------------------------------------------|
|--------------------------------------------------------------------|
|---------4-6------------------------------------7-----6-----7-----9-|
|---3-5-6----------9-------11-------12---2-3-5-6---5-6---6-8---6-8---|
|-4-----------8-10---10-11----10-11----4-----------------------------|


  S S S S S S S S S S S S S S S S S S S S S S S S S S S S S S
|-------------------------------------------------------------|
|-----------1-------------------------------------------------|
|---------2-------2-----4-----5---------2-4-----2-----2-----4-|
|-----3-4-----0-3---3-4---3-4-------3-4-------3---3-4---3-4---|
|---5-----------------------------5---------5-----------------|
|-7-----------------------------7-----------------------------|


  S S S S S S S S S S S S S S S S S S S S S S S S S S S S S S
|-------------------------------------------------------------|
|-----------1-----------------------------1-------------------|
|---------2-------2-----4-----5---------2-------4-----5-----7-|
|---0-3-4-----0-3---3-4---3-4-------3-4-----2-4---4-6---4-6---|
|-2-------------------------------5---------------------------|
|-------------------------------7-----------------------------|


  S S S S S S S S S S S S S S S S S S S S S S S S S S S S S S
|---------2-3-2---2-----2-----3-----------3-----3-----3-----4-|
|-----3-4-------3---3-4---3-4-----0-1-3-4---1-3---3-4---3-4---|
|---5---------------------------1-----------------------------|
|-6-----------------------------------------------------------|
|-------------------------------------------------------------|
|-------------------------------------------------------------|


  S S S S S S S S S S S S S S S S S S S S S S S S S S S S S S
|---------3-4-----4-----4-----5-----------5-----4-----3-----2-|
|-----3-4-------3---3-4---3-4---------3-4---3-4---3-4---3-4---|
|---5---------5-------------------4-5-------------------------|
|-6-----------------------------6-----------------------------|
|-------------------------------------------------------------|
|-------------------------------------------------------------|


 12/8                                               6/8
  S S S S S  S S S S S S S S S S S S S S S S S S S   S S S S S  S S S S S S S
|-----3-4-7-10-9---8---7-------3-4-7-9-8---7-------|-----3-4-7-10-9---8---7---|
|-2-5------------9---9---8---5-----------8---8-9-8-|---5------------9---9---8-|
|--------------------------6-----------------------|-6------------------------|
|--------------------------------------------------|--------------------------|
|--------------------------------------------------|--------------------------|
|--------------------------------------------------|--------------------------|


 8/4
  S S S S S S  S  S  S  S  S  S  S  S  S  S  S E. +H.
|-----3-4-7-9-10-----------------------------------------|
|---5------------12--------------------------------------|
|-6-----------------13-12--------------------------------|
|-------------------------14-----------------------------|
|----------------------------16-15-----------------------|
|----------------------------------17-14-13-10-7--(7)----|


 15/8
  S S S S S S S S S S S S S S S  S S  S  S  S  S  S  S  S  S  S  S  S  S  S
|----------------------------------------------------------------------------|
|-----------4----------------------------------------------------------------|
|---------6-------6-----8-----9----------------------------------------------|
|---5-7-8-----5-7---7-8---7-8-----------------13-----------------------------|
|-6--------------------------------9-10-12-13----------16-------16-------18--|
|-------------------------------11---------------15-17----17-18----17-18-----|


  S S S S S S S S S S S S S S S  S S  S  S  S  S  S  S  S  S  S  S  S  S  S
|---------------------------------------------------------------------------|
|---------2-4---------------------------------------------------------------|
|---0-2-3---------6-----8-----9---------------------------------------------|
|-1-----------5-7---7-8---7-8-----------------14-------13-------14-------16-|
|----------------------------------9-10-12-13----12-13----13-15----13-15----|
|-------------------------------11------------------------------------------|


   S  S  S  S S S S S S S S S S S S S S S S S S S S S S S S S S S
|-----------------------------------------------------------------|
|---------------8-----5-----7-----8---------5-7-----5-----5-----7-|
|-------------9-----5---5-6---5-6-------5-6-------5---5-6---5-6---|
|-------10-11-----7-------------------7---------7-----------------|
|----12-----------------------------9-----------------------------|
|-
            
Submit corrections


        Frakctured lessons Hard to play? Try these video lessons and learn fast Frakctured lessons
        
↑ Back to top | Tablatures and chords for acoustic guitar and electric guitar, ukulele, drums are parodies/interpretations of the original songs. You may use it for private study, scholarship, research or language learning purposes only