» » »

King Crimson - Fallen Angel Bass

Artists:  A B C D E F G H I J K L M N O P Q R S T U V W X Y Z # 

Fallen Angel Bass

(ver. 1) Click to play this song!
King Crimson
 Rating:
1.8/5 (30 votes)

 Fallen Angel lessons Tabs too difficult? Try these video lessons and learn fast
 
                Intro
G|-------------|----------------|2------|
D|-------------|5---4---4---2---|-------|
A|-------------|----------------|-------|
E|0------------|----------------|-------|


Verse x2
G|----------|----------|----------|-------------|-------|-------|-------|-------------|
D|----------|----------|------4---|2----2---0---|-------|-------|-------|------------2|
A|------5---|3-----5---|2---------|-------------|3------|2------|0------|2---3---5----|
E|3---------|----------|----------|-------------|-------|-------|-------|-------------|

G|----------|----------|----------|-------------|-------|-------|-------|-------------|
D|----------|----------|------4---|2----2---0---|-------|-------|-------|-------------|
A|------5---|3-----5---|2---------|-------------|3------|2------|0------|0------------|
E|3---------|----------|----------|-------------|-------|-------|-------|-------------|

G|----------|----------|----------|-------------|-------|-------|-------|----------------|
D|----------|----------|------4---|2----2---0---|-------|-------|-------|------------2---|
A|------5---|3-----5---|2---------|-------------|3------|2------|0------|2---3---5-------|
E|3---------|----------|----------|-------------|-------|-------|-------|----------------|

G|----------|----------|----------|-------------|-------|-------|-------|-------------|
D|----------|----------|------4---|2----2---0---|-------|-------|-------|-------------|
A|------5---|3-----5---|2---------|-------------|3------|2------|0------|0------------|
E|3---------|----------|----------|-------------|-------|-------|-------|-------------|


"West Side Skyline...."
G|----------|-------|----------|-------|----------|-------|-------|-------|
D|----------|-------|----------|-------|----------|-------|-------|-------|
A|2-----0---|0------|2-----0---|0------|2-----0---|0------|-------|-------|
E|----------|-------|----------|-------|----------|-------|3------|3------|

Play "West Side Skyline" twice instrumentally, then twice with vocals

Transition
            e    e   e   e
G|--------------|2---3---2------|
D|-----4----4---|---------------|
A|2-------------|---------------|
E|--------------|---------------|


"Fallen Angel..."  (in 3|4 time)
                e   e   e   e   e   e
G|------|------|------------------------|------|
D|------|------|----0---2---0-----------|------|
A|3-----|2-----|3---------------4---3---|2-----|
E|------|------|------------------------|------|

The "Fallen Angel" segment goes:
Guitar only x2 (no bass)
With Vocals x4
Instrumental x5
With Vocals x4
Instrumental x1


Then another Transition (4|4 time)
G|-------|-------|
D|-------|-------|
A|2------|2------|
E|-------|-------|


Break                                               e   e          e   e            
G|-------|----------|-------|----------------|--------------|--------------|-------|-------|
D|-------|----------|-------|------------2---|0-----2---0---|------0-------|-------|-------|
A|-------|----------|0------|0---2---4-------|--------------|--3-------3---|-------|-------|
E|0------|3----3----|-------|----------------|--------------|--------------|0------|-------|
Play the Break 3 times


"West Side Skyline...."
G|----------|-------|----------|-------|----------|-------|-------|-------|
D|----------|-------|----------|-------|----------|-------|-------|-------|
A|2-----0---|0------|2-----0---|0------|2-----0---|0------|-------|-------|
E|----------|-------|----------|-------|----------|-------|3------|3------|

No G at the end this time!

Verse x2
G|----------|----------|----------|-------------|-------|-------|-------|-------------|
D|----------|----------|------4---|2----2---0---|-------|-------|-------|------------2|
A|------5---|3-----5---|2---------|-------------|3------|2------|0------|2---3---5----|
E|3---------|----------|----------|-------------|-------|-------|-------|-------------|

G|----------|----------|----------|-------------|-------|-------|-------|-------------|
D|----------|----------|------4---|2----2---0---|-------|-------|-------|-------------|
A|------5---|3-----5---|2---------|-------------|3------|2------|0------|0------------|
E|3---------|----------|----------|-------------|-------|-------|-------|-------------|

G|----------|----------|----------|-------------|-------|-------|-------|----------------|
D|----------|----------|------4---|2----2---0---|-------|-------|-------|------------2---|
A|------5---|3-----5---|2---------|-------------|3------|2------|0------|2---3---5-------|
E|3---------|----------|----------|-------------|-------|-------|-------|----------------|

G|----------|----------|----------|-------------|-------|-------|-------|-------------|
D|----------|----------|------4---|2----2---0---|-------|-------|-------|-------------|
A|------5---|3-----5---|2---------|-------------|3------|2------|0------|0------------|
E|3---------|----------|----------|-------------|-------|-------|-------|-------------|


Transition
            e    e   e   e
G|--------------|2---3---2------|
D|-----4----4---|---------------|
A|2-------------|---------------|
E|--------------|---------------|



"Fallen Angel..."  (in 3|4 time)
                e   e   e   e   e   e
G|------|------|------------------------|------|
D|------|------|----0---2---0-----------|------|
A|3-----|2-----|3---------------4---3---|2-----|
E|------|------|------------------------|------|

This time the "Fallen Angel" segment goes:
Guitar only x2
Instrumental x2
With Vocals x4
Instrumental ad infinitum, with every other cycle throwing in an A instead of C like this:

G|------|------|------------------------|------|
D|------|------|----0---2---0-----------|------|
A|0-----|2-----|3---------------4---3---|2-----|
E|------|------|------------------------|------|
            
Submit corrections


        Fallen Angel lessons Hard to play? Try these video lessons and learn fast Fallen Angel lessons
        
↑ Back to top | Tablatures and chords for acoustic guitar and electric guitar, ukulele, drums are parodies/interpretations of the original songs. You may use it for private study, scholarship, research or language learning purposes only