» » »

King Crimson - Coda I Have A Dream Tabs

Artists:  A B C D E F G H I J K L M N O P Q R S T U V W X Y Z # 

Coda I Have A Dream Tabs

(ver. 1) Click to play this song!
King Crimson
 Rating:
4/5 (4 votes)

 Coda I Have A Dream lessons Tabs too difficult? Try these video lessons and learn fast
 
                Hi,
I have made a trancription of I Have A Dream acoustic version and
thought you would like to get it

My best wishes,
TOMEK TALERZAK

I Have a Dream (Intro [coda?] to "Larks' Tongues in Aspic Part IV")

TransKcription of the acoustic version which didn't appear on
"the construKction of light" album. Based on Belew's free mp3.

According to Adrian, the song was born while the rest of the boys were
rehearsing a slow tempo of "Larks' IV":
"... I started writing a string of chord changes to their pulse. They were
interesting changes. Eight chord shapes moving downward chromatically which
after 24 bars end up back where they began."

Spaces between notes don't necessarily represent the duration
of the notes!

METRUM: 4/4 !!!
Intro
e|-----------------|-----------------|-----------------|-------|
B|-----------------|-----------------|-----------------|-------|
G|-----8-----8-----|-----8-----8-----|-----8-----8-----|----5--|
D|---5-----5-----5-|---5-----5-----5-|---5-----5-----5-|--3----|
A|-----------------|-----------------|-----------------|-------|
E|-8-----8-----8---|-7-----7-----7---|-6-----6-----6---|-5-----|

Verse #1
e|-----------------|-----------------|-----------------|-----------------|
B|-----------------|-----------------|-----------------|-----------------|
G|-----6-----6-----|-----6-----6-----|-----6-----6-----|-----4-----4-----|
D|---3-----3-----3-|---3-----3-----3-|---3-----3-----3-|---1-----1-----1-|
A|-----------------|-----------------|-----------------|-----------------|
E|-6-----6-----6---|-5-----5-----5---|-4-----4-----4---|-3-----3-----3---|
   Tragedys      of  Kennedys,         refugees,         AIDS disease,

Verse #2                                               (barre?)
e|-----------------|-----------------|-----------------|-----------------|
B|-----------------|-----------------|-----------------|-----------------|
G|-----4-----4-----|-----4-----4-----|-----4-----4-----|-----1-----1-----|
D|---1-----1-----1-|---1-----1-----1-|---1-----1-----1-|-----------------|
A|-----------------|-----------------|-----------------|---4-----4-----4-|
E|-4-----4-----4---|-3-----3-----3---|-2-----2-----2---|-1-----1-----1---|
   photos of     Hiroshima,        the Holocaust,    and Kosovo,

Verse #3
e|--------------------|--------------------|--------------------|--------------|
B|--------------------|--------------------|--------------------|--------------|
G|------14-----14-----|------14-----14-----|------14-----14-----|---12---12----|
D|---11-----11-----11-|---11-----11-----11-|---11-----11-----11-|--9----9-----9|
A|--------------------|--------------------|--------------------|--------------|
E|-14-----14-----14---|-13-----13-----13---|-12-----12-----12---|11---11---11--|
   Tim McVeigh,     Saddam Hussein,      the bombing of       the World Trade

Verse #4
e|--------------------|--------------------|--------------------|--------------|
B|--------------------|--------------------|--------------------|--------------|
G|------12-----12-----|------12-----12-----|------12-----12-----|----9-----9---|
D|----9------9------9-|----9------9------9-|----8------8------8-|--7-----7----7|
A|--------------------|--------------------|--------------------|--------------|
E|-12-----12-----12---|-11-----11-----11---|-10-----10-----10---|-9----9----9--|
   hostages         in Bosnia,          atrocities,          South Africa,

Verse #5
e|--------------------|-----------------|-----------------|----------------|
B|--------------------|-----------------|-----------------|----------------|
G|------10-----10-----|-----10----10----|-----10----10----|-----8-----8----|
D|----7------7------7-|---7-----7-----7-|---7-----7-----7-|---5-----5----5-|
A|--------------------|-----------------|-----------------|----------------|
E|-10-----10-----10---|-9-----9-----9---|-8-----8-----8---|-7-----7----7---|
 abortion and       Kevorkian,            Vietnam,          napalm,

Verse #6 (ALMOST as intro)
e|-----------------|-----------------|-----------------|----------------|
B|-----------------|-----------------|-----------------|----------------|
G|-----8-----8-----|-----8-----8-----|-----8-----8-----|----5-----5-----|
D|---5-----5-----5-|---5-----5-----5-|---4-----4-----4-|--3-----3-----3-|
A|-----------------|-----------------|-----------------|----------------|
E|-8-----8-----8---|-7-----7-----7---|-6-----6-----6---|-5----5-----5---|
   Lady Di,      and Lennon died   a violent crime,      Columbine,

Verse #7 (ALMOST AS VERSE #1)
e|-----------------|-----------------|-----------------|---------------|
B|-----------------|-----------------|-----------------|---------------|
G|-----6-----6-----|-----6-----6-----|-----6-----6-----|----4-----4----|
D|---3-----3-----3-|---3-----3-----3-|---3-----3-----3-|--1-----1----1-|
A|-----------------|-----------------|-----------------|---------------|
E|-6-----6-----6---|-5-----5-----5---|-4-----4-----4---|-3----3----3---|
"I have a dream  that one day..."      Rodney King,      O.J.,

Verse #8 (ALMOST as verse #2)
e|-----------------|-----------------|-----------------|-------|
B|-----------------|-----------------|-----------------|-------|
G|-----4-----4-----|-----4-----4-----|-----4-----4-----|-----1-|
D|---1-----1-----1-|---1-----1-----1-|---0-----0-----0-|-------|
A|-----------------|-----------------|-----------------|---4---|
E|-4-----4-----4---|-3-----3-----3---|-2-----2-----2---|-1-----|
   symbols of    our lives and times,
                                  "One giant leap    for mankind"

In the "power ballad" version with full instrumentation, used in "tcol",
there are some changes, of course, but the main idea and the core
are the same. So think it up yourself!
My best wishes to all of you - noble Eters!!!

                                             TOMEK
PS
 I made this transKcription with violin E string
 missing (it's broken - an accident). Thank you, Ade for not using it
 in your song! ;-)
PPS
 This is my first ET mail & first ET tab. Wow! Please mail if there are any
 mistakes.

I HAVE A DREAM
Tragedys of Kennedys, refugees, AIDS disease,
photos of Hiroshima, the Holocaust, and Kosovo,

Tim McVeigh, Saddam Hussein, the bombing of the World Trade
hostages in Bosnia, atrocities, South Africa,
abortion and Kevorkian, Vietnam, napalm,

Lady Di, and Lennon died a violent crime, Columbine,

"I have a dream that one day..."Rodney King, O.J.,
symbols of our lives and times, "One giant leap for mankind"

 -=-=-=-=-=-=-=-=-=-=-=-=-=-=-=-=-=-=-=-=-=-=-=-=-=-
michtal at poczta dot fm   OR  talerzak at culex dot biol dot uni dot wroc dot pl

      "AND IF WARHOL'S A GENIUS, WHAT AM I,
      A SPECK OF LINT ON THE PENIS OF AN ALIEN
      BURRIED IN GELATIN
      BENEATH THE SANDS OF VENUS"
 -=-=-=-=-=-=-=-=-=-=-=-=-=-=-=-=-=-=-=-=-=-=-=-=-=-
            
Submit corrections


        Coda I Have A Dream lessons Hard to play? Try these video lessons and learn fast Coda I Have A Dream lessons
        
↑ Back to top | Tablatures and chords for acoustic guitar and electric guitar, ukulele, drums are parodies/interpretations of the original songs. You may use it for private study, scholarship, research or language learning purposes only