Home » K » Kina Grannis »

Kina Grannis - The One You Say Goodnight To Tabs

Artists:  A B C D E F G H I J K L M N O P Q R S T U V W X Y Z # 

The One You Say Goodnight To Tabs

(ver. 1) Click to play this song!
Kina Grannis
[Intro/Chorus]

e|--------------------|
B|--------------------|
G|--------------------|
D|------------------2-| x2
A|----------------3---|
E|3---3--3-3-3-3------|
                       
e|---------------|
B|---------------|
G|---------------|
D|---------------|
A|---------------|
E|--3---3--3-3-3-|


[Verse]

e|-----------------------|
B|-----------------------|
G|-----------------------|
D|------------2--2--0--0-| x3
A|------3--3-------------|
E|3--3-------------------|
                            
e|----------------------|
B|----------------------|
G|----------------------|
D|------------0--0-0--0-|
A|------3--3------------|
E|3--3------------------|


[Chorus]

e|--------------------|
B|--------------------|
G|--------------------|
D|-------------------2| x3
A|-----------------3--|
E|--3---3--3-3-3-3----|
                        
e|----------------|
B|----------------|
G|----------------|
D|----------------|
A|----------------|
E|--3---3--3-3-3--|


[Verse]

e|-----------------------|
B|-----------------------|
G|-----------------------|
D|------------2--2--0--0-| x3
A|------3--3-------------|
E|3--3-------------------|
                             

e|----------------------|
B|----------------------|
G|----------------------|
D|------------0--0-0--0-|
A|------3--3------------|
E|3--3------------------|


[Chorus]

e|--------------------|
B|--------------------|
G|--------------------|
D|-------------------2| x3
A|-----------------3--|
E|--3---3--3-3-3-3----|
                       
e|----------------|
B|----------------|
G|----------------|
D|----------------|
A|----------------|
E|--3---3--3-3-3--|


[Bridge]

e|------------------------|
B|------------------------|
G|------------------------|
D|2--2--0--0--------------| x3
A|------------2--2--3--3--|
E|------------------------|

e|------------------------|
B|------------------------|
G|------------------------|
D|2--2--0--0--------------|
A|------------2--2--------|
E|------------------------|


[Outro/Chorus]

Play on the third time she sings "I will be the one you say goodnight to" 
e|--------------------|
B|--------------------|
G|--------------------|
D|-------------------2| x3
A|-----------------3--|
E|--3---3--3-3-3-3----|
                       
e|----------------|
B|----------------|
G|----------------|
D|----------------|
A|----------------|
E|--3---3--3-3-3--|            
Submit corrections

↑ Back to top | Tablatures and chords for acoustic guitar and electric guitar, ukulele, drums are parodies/interpretations of the original songs. You may use it for private study, scholarship, research or language learning purposes only