Home » K » Kina Grannis »

Kina Grannis - Protect Her Tabs

Artists:  A B C D E F G H I J K L M N O P Q R S T U V W X Y Z # 

Protect Her Tabs

(ver. 1) Click to play this song!
Kina Grannis
I’m not very good with guitar and this is my first tab..I hope it sounds right.
Capo on 2nd fret

Bmadd11 - 024430 
Fm7(?) - 200230
(not sure what these chords are called, but we’ll call it that for now:))


Intro:
   D
e|-2-----2-2-----2-2-----2-0--------|
B|---3-------3-------3--------------|
G|-4---4---2---2---0---0---2--------|
D|----------------------------------|
A|----------------------------------|
E|----------------------------------|

Chorus:
   D                              x3  4th time
e|-2-----2-2-----2-2-----2-2-----2-|--2-----2-2-----2-2-----2-0-------|
B|---3-------3-------3-------3-----|----3-------3-------3-------------|
G|-4---4---2---2---0---0---2---2---|--4---4---2---2---0---0---2-------|
D|---------------------------------|----------------------------------|
A|---------------------------------|----------------------------------|
E|---------------------------------|----------------------------------|

Verses:
  Bmadd11          A             Fm7             G                   x4
e|-------0---------------0-------------0------------------------------|
B|-3-------------3-2-------2---2-3-------------3-3-----3-------3------|
G|---4-------4-------2-------2-----2-------2-------0-------0----------|
D|-----4-------4-------2-------------0-------0-------0-------0--------|
A|-2-------2-------0--------------------------------------------------|
E|-------------------------------2---------------3--------------------|

Transition to Chorus played off of the last G from verse:
   G                Em      Fm7     G      D
e|--------------------------------------------------------------------|
B|-3------3---------0-----0-------3-3----3-3--------------------------|
G|----0-------0---0-0-0-----2-2-------0----2--------------------------|
D|------0-------------------------------0-----------------------------|
A|-----------------------------------------0--------------------------|
E|-3--------3---2---0---0---2---2---3---------------------------------|

End:
   D                                                             Bmadd11
e|-2-----2-2-----2-2-----2-2-----2---2-----2-0-----0-0-----0-0---0-----||
B|---3-------3-------3-------3---------3-------3-------3----------3----||
G|-4---4---2---2---0---0---2---2-----4---4---2---2---0---0---2-----4---||
D|------------------------------------------------------------------4--||
A|-------------------------------------------------------------------2-||
E|---------------------------------------------------------------------||


There is a weakness in the knees
We are such fragile things
Please give her what she needs
Protect her, protect her please.

She runs, imagining what could come
And when she finds a key she locks it away
So many years of doubting self, riding fear
She knows what's in her but she's so afraid to care
She dreams to grow but oh

There is a weakness in the knees
We are such fragile things
What I want what I need
Protect her, protect her please.

She hides, while shielding hope from her eyes
And when she finds a smile she calls it luck
So many years of doubting self, riding fear
She knows what's in her but she's so afraid to care
She tries to grow but oh

There is a weakness in the knees
We are such fragile things
What I want what I need
Protect her, protect her please.
            
Submit corrections

↑ Back to top | Tablatures and chords for acoustic guitar and electric guitar, ukulele, drums are parodies/interpretations of the original songs. You may use it for private study, scholarship, research or language learning purposes only