Home » K » Kina Grannis »

Kina Grannis - Home Tabs

Artists:  A B C D E F G H I J K L M N O P Q R S T U V W X Y Z # 

Home Tabs

(ver. 1) Click to play this song!
Kina Grannis
Intro:
e|-------------------------------------------------------------------------------------------------|
B|-----3-----3-----3-----3-----3-----3-----3-----3-----3-----3-----3-----3-----3-----3-----3-----3-|
G|---0-----0-----0-----0-----0-----0-----0-----0-----0-----0-----0-----0-----0-----0-----0-----0---|
D|-------------------0-----2-----------------0-----------------------0-----2-----------------0-----|
A|-------2-----3-----------------2-----3-----------------2-----3-----------------2-----3-----------|
E|-3-----------------------------------------------3-----------------------------------------------|


Verse (x2):
e|-------------------------------------------------------------------------------------------------|
B|-----3-----3-----3-----3-----3-----3-----3-----3-----3-----3-----3-----3-----3-----3-----3-----3-|
G|---0-----0-----0-----0-----0-----0-----0-----0-----0-----0-----0-----0-----0-----0-----0-----0---|
D|-------------------0-----2-----------------0-----------------------0-----------------------0-----|
A|-------2-----3-----------------2-----3-----------------2-----3-----------------2-----3-----------|
E|-3-----------------------------------------------3-----------------------3-----------------------|
V1: Paper made into sailboats, running ?round in our raincoats, I was free I was five years old
    Daddy told me he loved me, I picked his tie in the morning, and he showed me the stars at night

V2: My collection of stickers, violin with my sisters, galaxies in an unknown sky
    We all needed each other, be protected protect her, couldn?t let them go out of sight


Chorus:
e|-------------------------------------------------------------------------------------------------|
B|-----3-----3-----3-----3-----3-----3-----3-----3-----3-----3-----3-----3-----3-----3-----3-----3-|
G|---0-----0-----0-----0-----0-----0-----0-----0-----0-----0-----0-----0-----0-----0-----0-----0---|
D|-------------------0-----2-----------------0-----------------------0-----2-----------------0-----|
A|-------2-----3-----------------2-----3-----------------2-----3-----------------2-----3-----------|
E|-3-----------------------------------------------3-----------------------------------------------|
Take me home, home
(play twice for 2nd chorus)


Bridge:
e|-------------------------------------------------------------------------------------------------|
B|-----3-----3-----3-----3-----3-----3-----3-----3-----3-----3-----3-----3-----3-----3-----3-----3-|
G|---0-----0-----0-----0-----0-----0-----0-----0-----0-----0-----0-----0-----0-----0-----0-----0---|
D|-2-----2-----2-----2-----0-----0-----0-----0-----------------------------------------------------|
A|-------------------------------------------------3-----3-----3-----3-----3-----3-----3-----3-----|
E|-------------------------------------------------------------------------------------------------|
Take it back, keep holding on, as long as we?re here

e|-------------------------------------------------------------------------------------------------|
B|-----3-----3-----3-----3-----3-----3-----3-----3-----3-----3-----3-----3-----3-----3-----3-----3-|
G|---0-----0-----0-----0-----0-----0-----0-----0-----0-----0-----0-----0-----0-----0-----0-----0---|
D|-2-----2-----2-----2-----0-----0-----0-----0-----------------------------------------0-----2-----|
A|-------------------------------------------------3-----3-----3-----3-----2-----3-----------------|
E|-------------------------------------------------------------------------------------------------|
            
Submit corrections

↑ Back to top | Tablatures and chords for acoustic guitar and electric guitar, ukulele, drums are parodies/interpretations of the original songs. You may use it for private study, scholarship, research or language learning purposes only