Home » K » Kina Grannis »

Kina Grannis - Chandelier Tabs

Artists:  A B C D E F G H I J K L M N O P Q R S T U V W X Y Z # 

Chandelier Tabs

(ver. 1) Click to play this song!
Kina Grannis
[Intro]

e|---------------------------------------------------------------------------|
B|---------------------------------------------------------------------------|
G|----------5------------5-------------5-----------5-------------------------|
D|-----3-----(4x)---------(4x)----------(4x)----------(4x)-------------------|
A|------------------4-------------6-------------3----------------------------|
E|---------------------------------------------------------------------------|

e|---------------------------------------------------------------------------|
B|---------------------------------------------------------------------------|
G|----------5------------5-------------5-----------5-------------------------|  (2x)
D|-----3-----(4x)---------(4x)----------(4x)----------(4x)-------------------|
A|------------------4-------------6-------------3----------------------------|
E|---------------------------------------------------------------------------|
  Party girls don't get hurt..


[Verse]

e|---------------------------------------------------------------------------|
B|---------------------------------------------------------------------------|
G|---------------------------------------------------------------------------|
D|--------------6------------------------------------------------------------|
A|----4-------------------6-------------------3------------------------------|
E|---------------------------------------------------------------------------|
 1,2,3...

e|---------------------------------------------------------------------------|
B|---------------------------------------------------------------------------|
G|---------------------------------------------------------------------------|
D|---------6--------------8--------------5--------------6--------------------|  (4x)
A|----4-----(4x)-----6-----(4x)-----3-----(4x)-----4-----(4x)----------------|
E|---------------------------------------------------------------------------|
 I'm gonna swing..


[Chorus]

e|---------------------------------------------------------------------------|
B|---------------------------------------------------------------------------|
G|---------------------------------------------------------------------------|
D|---------------------------------------------------------------------------|  (2x)
A|----4------------6------------3--------------4-----------------------------|
E|---------------------------------------------------------------------------|
 But I'm holding on for dear life,..

e|---------------------------------------------------------------------------|
B|---------------------------------------------------------------------------|
G|----------5------------5-------------5-----------5-------------------------|
D|-----3-----(4x)---------(4x)----------(4x)----------(4x)-------------------|
A|------------------4-------------6-------------3----------------------------|
E|---------------------------------------------------------------------------|
 Sun is up, I'm a mess..


[Outro]

e|---------------------------------------------------------------------------|
B|---------------------------------------------------------------------------|
G|---------------------------------------------------------------------------|
D|---------------------------------------------------------------------------|
A|----4--------------6---------------3---------------------------------------|
E|---------------------------------------------------------------------------|
1,2,3...

e|---------------------------------------------------------------------------|
B|---------------------------------------------------------------------------|
G|---------------------------------------------------------------------------|
D|---------6--------------8--------------5--------------6--------------------|  (4x)
A|----4-----(4x)-----6-----(4x)-----3-----(4x)-----4-----(4x)----------------|
E|---------------------------------------------------------------------------|
 I'm gonna swing..             
Submit corrections

↑ Back to top | Tablatures and chords for acoustic guitar and electric guitar, ukulele, drums are parodies/interpretations of the original songs. You may use it for private study, scholarship, research or language learning purposes only