» » »

Kim Larsen - Kloden Drejer Stille Rundt Live Chords

Artists:  A B C D E F G H I J K L M N O P Q R S T U V W X Y Z # 

Kloden Drejer Stille Rundt Live Chords

(ver. 1) Click to play this song!
Kim Larsen
 Rating:
4.3/5 (13 votes)

 Kloden Drejer Stille Rundt Live lessons Tabs too difficult? Try these video lessons and learn fast
 
                [Intro riff]
e|-----------------------------------------------------|
B|--0/8--6--(6)/11--13p11--10--11p10--9--11p9--8--6/8--|
G|-----------------------------------------------------| x2
D|-----------------------------------------------------|
A|-----------------------------------------------------|
E|-----------------------------------------------------|

[Chorus]
e|-----------------------------------------------------|
B|-----------------------------------------------------|
G|-----------------------------------------------------|
D|--5/6/5----3---(3)/8--10p8--7--8p7--6p8--5--(5)\3/5--|
A|-----------------------------------------------------|
E|-----------------------------------------------------|

e|----------------------------|
B|----------------------------|
G|-----3h5--3--------------6--|
D|--5----------6--5--3-----6--|
A|----------------------6--4--|
E|----------------------------|

e|--------------8--5-----------|
B|--9--8--6--5-----------------|
G|-----------------------------|
D|----------------------(0)/3--|
A|-----------------------------|
E|-----------------------------|

[Verse]
e|----------------------------------------|
B|----------------------------------------|
G|----------------------------------------|
D|--1/6--8p6--5--6p5--4--6p4--3--(3)\1/3--|
A|----------------------------------------|
E|----------------------------------------|

e|--------------------------------------|
B|--------------------------------------|
G|-----1h3--1--------------4----5----3--|
D|--3----------4--3--1-----4----5----3--|
A|----------------------4--2----3----1--|
E|--------------------------------------|

e|----------------------------------------------------------------------|
B|----------------------------------------------------------------------|
G|--3--1--0----0--0--0/6--5--5-----5--6--6--6----5--8p7--6h8--6h8--6h8--|
D|------------------------------8---------------------------------------|
A|----------------------------------------------------------------------|
E|----------------------------------------------------------------------|

[Solo 1]
e|------------------------------------------------------------------------------------------------------|
B|-----------14------------------------------------12--11--10--9--8--7--10--9--8--7--6--5---------------|
G|--6--8--13b15r13--13--11--13b15--11--6h8(trill)-------------------------------------------------------|
D|-----------------------------------------------------------------------------------------(0)/5--6--5--|
A|------------------------------------------------------------------------------------------------------|
E|------------------------------------------------------------------------------------------------------|

[Chorus]
e|--------------------------------------------|
B|--------------------------------------------|
G|--------------------------------------------|
D|--3---(3)/8--10p8--7--8p7--6p8--5--(5)\3/5--|
A|--------------------------------------------|
E|--------------------------------------------|

e|----------------------------|
B|----------------------------|
G|-----3h5--3--------------6--|
D|--5----------6--5--3-----6--|
A|----------------------6--4--|
E|----------------------------|

e|--------------8--5-----------|
B|--9--8--6--5-----------------|
G|-----------------------------|
D|----------------------(0)/3--|
A|-----------------------------|
E|-----------------------------|

[Verse]
e|----------------------------------------|
B|----------------------------------------|
G|----------------------------------------|
D|--1/6--8p6--5--6p5--4--6p4--3--(3)\1/3--|
A|----------------------------------------|
E|----------------------------------------|

e|--------------------------------------|
B|--------------------------------------|
G|-----1h3--1--------------4----5----3--|
D|--3----------4--3--1-----4----5----3--|
A|----------------------4--2----3----1--|
E|--------------------------------------|

[Solo 2]
e|--------------------------------------------------------------------------------14--16--14------|
B|--9--11--11----8--9/14--13--13----11--13--14----13--14--15----15--16----14--16--------------16--|
G|------------------------------------------------------------------------------------------------|
D|------------------------------------------------------------------------------------------------|
A|------------------------------------------------------------------------------------------------|
E|------------------------------------------------------------------------------------------------|

e|----------14--16b18--16pb18--16pb18r16--14------------------14--16--14--18b20--18--18b20--18--18b20--|
B|--14--16------------------------------------16------14--16-------------------------------------------|
G|-----------------------------------------------------------------------------------------------------|
D|-----------------------------------------------------------------------------------------------------|
A|-----------------------------------------------------------------------------------------------------|
E|-----------------------------------------------------------------------------------------------------|

e|--18--16------21b23--21--21b23--21--21b23---------|
B|----------16-------------------------------16b18--|
G|--------------------------------------------------|
D|--------------------------------------------------|
A|--------------------------------------------------|
E|--------------------------------------------------|

[Chorus]
e|-------------------------------------------|
B|-------------------------------------------|
G|-------------------------------------------|
D|--10--12p10--9--10p9--8--10p8--7--(7)\5/7--|
A|-------------------------------------------|
E|-------------------------------------------|

e|----------------------------|
B|----------------------------|
G|-----5h7--5--------------8--|
D|--7----------8--7--5-----8--|
A|----------------------8--6--|
E|----------------------------|

e|----------------10--7-----------|
B|--11--10--8--7------------------|
G|--------------------------------|
D|-------------------------(0)/3--|
A|--------------------------------|
E|--------------------------------|

[Verse]
e|----------------------------------------|
B|----------------------------------------|
G|----------------------------------------|
D|--1/6--8p6--5--6p5--4--6p4--3--(3)\1/3--|
A|----------------------------------------|
E|----------------------------------------|

e|---------------------------------------|
B|---------------------------------------|
G|-----3h5--3--------------6-------------|
D|--5----------6--5--3-----6----5--3--2--|
A|----------------------6--4-------------|
E|---------------------------------------|

[Outro]
e|--------------8--5-----6--3-----|
B|--9--8--6--5--------3-----------|
G|--------------------------------|
D|--------------------------------|
A|--------------------------------|
E|--------------------------------|

e|-------------------------------------------------------|
B|--6--(6)/11--13p11--10--11p10--9--11p9--8--6h8(trill)--|
G|-------------------------------------------------------|
D|-------------------------------------------------------|
A|-------------------------------------------------------|
E|-------------------------------------------------------|

e|----------------------------------------------------|
B|--(0)/11--13p11--10--11p10--9--11p9--8--6h8(trill)--|
G|----------------------------------------------------|
D|----------------------------------------------------|
A|----------------------------------------------------|
E|----------------------------------------------------|

            
Submit corrections


        Kloden Drejer Stille Rundt Live lessons Hard to play? Try these video lessons and learn fast Kloden Drejer Stille Rundt Live lessons
        
↑ Back to top | Tablatures and chords for acoustic guitar and electric guitar, ukulele, drums are parodies/interpretations of the original songs. You may use it for private study, scholarship, research or language learning purposes only