» » »

Killswitch Engage - My Last Serenafe Tabs

Artists:  A B C D E F G H I J K L M N O P Q R S T U V W X Y Z # 

My Last Serenafe Tabs

(ver. 1) Click to play this song!
Killswitch Engage
 Rating:
4/5 (4 votes)

 My Last Serenafe lessons Tabs too difficult? Try these video lessons and learn fast
 
                This is probably the most accurate tab you'll find
for this song.

Drop-C Tuning (C, G, C, F, A, D)


 Acoustic Intro
-6----6----5----5-------------------------------------------------------------
-5----5----5----5----10----10----10----10-------------------------------------
-3----3----2----2----10----10----10----10-------------------------------------
-0----0----3----3-----8-----8-----8-----8-------------------------------------
-0----0---------------8-----8-----8-----8-------------------------------------
 ^         ^          ^           ^   <- Sweep pick chords marked with "^"    


 Fill 1
-4p0----------4p0-----------4p0-----------------------------------------------
-4p0--0--0--0-4p0--0--0--0--4p0--0--0--0--4p0-00-4p0-00-----------------------
 PM   -  -  -      -  -  -       -  -  -  - - -- - - --                       


 Verse
-1-0-2-3-1-0---0-2-3-1-0---1-0-2-3-1-0----3-----------5-----------------------
-1-0-2-3-1-0---0-2-3-1-0---1-0-2-3-1-0----1-----3-----5-----------------------
-1-0-2-3-1-0---0-2-3-1-0---1-0-2-3-1-0--0---0-0-3-0-0-------------------------
 PM- - - - -   - - - - -   - - - - - -  -   - -   - -                         


 Pre-chorus
----------------------------------10---9---9/10---5/7-5---3/5-3---------------
-3-0----------0-------0-------0---10---9---9/10---5/7-5---3/5-3---3-0---------
-3-0----------0-------0-------0----8---7---7/8----3/5-3---1/3-1---3-0---------
-3-0--0-0-0-0-0-0-0-0-0-0-0-0-0-0----0---0------0-------0-------0-3-0---------
 PM   - - - -   - - -   - - -   -    -   -      -       -       -             


 Chorus
-------------------------------------------------|----------------------------
-------------------------------------------------|----------------------------
-------------12-12-12-12-12-12-10-10-10-10-10-10-|----------------------------
-0-0-0-0-0-0-10-10-10-10-10-10-10-10-10-10-10-10-|----------------------------
-0-0-0-0-0-0-10-10-10-10-10-10--8--8--8--8--8--8-|-----7---8-7----------7-8---
-0-0-0-0-0-0-10-10-10-10-10-10--8--8--8--8--8--8-|-0-0---0-----0-0-10-0-------
 PM                                                - -   -     - -    -       


 Chorus - Guitar 2 (Repeat throughout chorus)
-10-10-10-10-10-10-10\9-9-9-9-9-----------------------------------------------
--8--8--8--8--8--8--8\7-7-7-7-7-----------------------------------------------
                                                 


 Fill 2
---------------------------------------------|--------------------------------
---------------------------------------------|--------------------------------
---------------------------------------------|--------------------------------
-7---10h12--------------------------------3--|--------------------------------
-7-0-------10-----------------------------3--|-8---8-8p7----------------------
-7------------8v--00000--0000000--0000000-3--|-8-0-8--------------------------
 PM-              -----  -------  -------      Short fill before Verse 2      


 Verse #2 - Guitar 2 (Listen to song for rhythm)
-777777777777777-10-10-10-10-10-10-10-10--7777777777777777--------------------
-555555555555555--8--8--8--8--8--8--8--8--5555555555555555--------------------
            
Submit corrections


        My Last Serenafe lessons Hard to play? Try these video lessons and learn fast My Last Serenafe lessons
        
↑ Back to top | Tablatures and chords for acoustic guitar and electric guitar, ukulele, drums are parodies/interpretations of the original songs. You may use it for private study, scholarship, research or language learning purposes only