» » »

Killswitch Engage - My Last Serenade Tabs

Artists:  A B C D E F G H I J K L M N O P Q R S T U V W X Y Z # 

My Last Serenade Tabs

(ver. 1) Click to play this song!
Killswitch Engage
 Rating:
4.3/5 (26 votes)

 My Last Serenade lessons Tabs too difficult? Try these video lessons and learn fast
 
                Half a step down: D#G#C#F#A#D#


[Intro]

D#|---3-----------0-----------------0----------------------------------------------|
A#|---3-----0-----3-----8-----7-----3----------------------------------------------|
F#|---0-----0-----0-----0-----0-----0----------------------------------------------|
C#|---2-----0-----2-----x-----x-----2----------------------------------------------|
G#|---2-----2-----3-----7-----7-----3----------------------------------------------|
D#|---------3----------------------------------------------------------------------|


[Pre-Chorus]

D#|---------0-----3-----3-----2-----------------------------|
A#|---------2-----3-----3-----3-----------------------------|
F#|---4-----3-----0-----0-----2-----------------------------|
C#|---5-----------2-----2-----------------------------------|
G#|---5-----------3-----2-----------------------------------|
D#|---3-----------------------------------------------------|(x2)


[Chorus]

D#|---1-----0-----1-----1-----0-----1----------------------------------------------|
A#|---1-----2-----1-----1-----2-----1----------------------------------------------|
F#|---2-----0-----3-----2-----0-----3----------------------------------------------|
C#|---------2-----3-----3-----2-----3----------------------------------------------|
G#|---------3-----1-----3-----3-----1----------------------------------------------|
D#|---------------------1----------------------------------------------------------|(x2)


[Interlude]

D#|--1-----0-----1-------------------------------------|
A#|--1-----2-----1-------------------------------------|
F#|--2-----0-----3-------------------------------------|
C#|--------2-----3-------------------------------------|
G#|--------3-----1-------------------------------------|
D#|----------------------------------------------------|(x4)


[Bridge]

D#|---3-----3-----0-----2-----3-----3-----0-----0-----------0----------------------------|
A#|---3-----0-----3-----3-----3-----3-----3-----3-----1-----0----------------------------|
F#|---0-----0-----0-----0-----0-----0-----0-----0-----2-----0----------------------------|
C#|---0-----0-----2-----0-----2-----2-----3-----2-----2-----2----------------------------|
G#|---------2-----3-----3-----3-----2-----2-----2-----------2----------------------------|
D#|---------3-----------------------0-----------0-----------0----------------------------|


[Chorus]

D#|--1-----0-----1-----1-----0-----1-----------------------|
A#|--1-----2-----1-----1-----2-----1-----------------------|
F#|--2-----0-----3-----2-----0-----3-----------------------|
C#|--------2-----3-----3-----2-----3-----------------------|
G#|--------3-----1-----3-----3-----1-----------------------|
D#|--------------------1-----------------------------------|(x4)


[Outro]

 let the chords ring.
D#|---1-----0-----1---------------------------------------|
A#|---1-----2-----1---------------------------------------|
F#|---2-----0-----3---------------------------------------|
C#|---------2-----3---------------------------------------|
G#|---------3-----1---------------------------------------|
D#|-------------------------------------------------------|(x2)
            
Submit corrections


        My Last Serenade lessons Hard to play? Try these video lessons and learn fast My Last Serenade lessons
        
↑ Back to top | Tablatures and chords for acoustic guitar and electric guitar, ukulele, drums are parodies/interpretations of the original songs. You may use it for private study, scholarship, research or language learning purposes only