Home » K » Killradio »

Killradio - Whos World Tabs

Artists:  A B C D E F G H I J K L M N O P Q R S T U V W X Y Z # 

Whos World Tabs

(ver. 1) Click to play this song!
Killradio
Kilradio
Who's world

THis is the best band ever and you should get there new EP that is
comen soon titled "the good american."


INTRO (0:00-0:09)


e -------------------------5--5-5--3--3-3-3-3-3-3-------------------|
b -5--5-5-5-5-5-5--5--5-5--0--0-0--0--0-0-0-0-0-0--1--1-1-1-1-1-1---|
g -0--0-0-0-0-0-0--0--0-0--7--7-7--5--5-5-5-5-5-5--0--0-0-0-0-0-0---| X2
d -7--7-7-7-7-7-7--7--7-7--7--7-7--5--5-5-5-5-5-5--3--3-3-3-3-3-3---|
a -7--7-7-7-7-7-7--7--7-7-----* *-----* * * * * *--3--3-3-3-3-3-3---|
e ----* * * * * *-----* *-----* *-----* * * * * *-----* * * * * *---|

course (0:10-0:21)

e -------------------------5-5--5--3-3--3--3-3--3--3-3-|
b -5--5-5--5--5-5--5-5--5--0-0--0--0-0--0--0-0--0--0-0-|
g -0--0-0--0--0-0--0-0--0--7-7--7--5-5--5--5-5--5--5-5-|
d -7--7-7--7--7-7--7-7--7--7-7--7--5-5--5--5-5--5--5-5-|
a -7--7-7--7--7-7--7-7--7--* *-----* *-----------------|
e -----------------* *-----* *-----* *-----------------|

                                              course = X2
e -----------------------------------|
b --1--1-1--1--1-1-------------------|
g --0--0-0--0--0-0--1--1-1--1--1-1---|
d --3--3-3--3--3-3--0--0-0--0--0-0---|
a --3--3-3--3--3-3--3--3-3--3--3-3---|
e ------------------3--3-3--3--3-3---|


verse  (0:22-0:33)

verse = X2

e ----------------------5-5--3--3-3--3--3-3----------------------------------|
b -5--5-5--5--5-5--5-5--0-0--0--0-0--0--0-0--1--1-1-1-1-1-1------------------|
g -0--0-0--0--0-0--0-0--7-7--5--5-5--5--5-5--0--0-0-0-0-0-0--1--1-1-1-1-1-1--|
d -7--7-7--7--7-7--7-7--7-7--5--5-5--5--5-5--3--3-3-3-3-3-3--0--0-0-0-0-0-0--|
a -7--7-7--7--7-7--7-7-----------------------3--3-3-3-3-3-3--3--3-3-3-3-3-3--|
e -----------------------------------------------------------3--3-3-3-3-3-3--|


verse#2  (0:33-0:44)

this is a mix of the course and verse. the first part is from course and
second part from verse.(you can tell diference from drums)

e -------------------------5-5--5--3-3--3--3-3--3--3-3-|
b -5--5-5--5--5-5--5-5--5--0-0--0--0-0--0--0-0--0--0-0-|
g -0--0-0--0--0-0--0-0--0--7-7--7--5-5--5--5-5--5--5-5-|
d -7--7-7--7--7-7--7-7--7--7-7--7--5-5--5--5-5--5--5-5-|
a -7--7-7--7--7-7--7-7--7--* *-----* *-----------------|
e -----------------* *-----* *-----* *-----------------|

                                       verse#2 = X2
e ---------------------------------|
b -1--1-1-1-1-1-1------------------|
g -0--0-0-0-0-0-0--1--1-1-1-1-1-1--|
d -3--3-3-3-3-3-3--0--0-0-0-0-0-0--|
a -3--3-3-3-3-3-3--3--3-3-3-3-3-3--|
e -----------------3--3-3-3-3-3-3--|

for  (0:45-1:35)

play course X4. then verse X2. then verse#2 X2.


for  (1:36-2:07)

Base only


for (2:08-2:49)


reapeat verse till end of song (on last time through let last chord ring)
            
Submit corrections

↑ Back to top | Tablatures and chords for acoustic guitar and electric guitar, ukulele, drums are parodies/interpretations of the original songs. You may use it for private study, scholarship, research or language learning purposes only