Home » K » Killradio »

Killradio - Peace Makes Coffins Your Size Too Tabs

Artists:  A B C D E F G H I J K L M N O P Q R S T U V W X Y Z # 

Peace Makes Coffins Your Size Too Tabs

(ver. 1) Click to play this song!
Killradio
-------------------------------------------------------------------------------
-------------------------------------------------------------------------------


Tuning: EADGBe

This is just the chords so you guys i am sure can work out the rhythm :)

Intro

e|----|
B|----|
G|----|
D|-6--|
A|-4--|
E|----|

Verse

e|-----------------|
B|-----------------|
G|-----------------|
D|-----------------|
A|-4-x-4-x-4-x-4-6-|
E|-2-x-2-x-2-x-2-4-|

Chorus

e|---------|
B|---------|
G|---------|
D|-6-3-8---|
A|-4-1-6-6-|
E|-------4-|

Middle

e|---------------|
B|---------------|
G|---------------|
D|-6-3-6-3-8-3---|
A|-4-1-4-1-6-1-6-|
E|-------------4-|

Verse version 2

e|---2---4-|
B|---2---4-|
G|---3---5-|
D|---4---6-|
A|-4-4-6-6-|
E|-2-2-4-4-|

Start with the power chords then use the barre chords on upstrokes 

Outtro

e|-------9-9-9-9---|
B|-------9-9-9-9---|
G|---6-------------|
D|-6---6---------6-|
A|-4-------------4-|
E|-----------------|

Structure

Intro
Verse x2
Chorus
Intro
Middle
Chorus 
Intro
Verse version 2 x2
Chorus x4
Outtro

| /  slide up
| \  slide down
| h  hammer-on
| p  pull-off
| ~  vibrato
| +  harmonic
| x  Mute note
===============================================================================
            
Submit corrections

↑ Back to top | Tablatures and chords for acoustic guitar and electric guitar, ukulele, drums are parodies/interpretations of the original songs. You may use it for private study, scholarship, research or language learning purposes only