Home » K » Killradio »

Killradio - Burning The Water Brown Bass

Artists:  A B C D E F G H I J K L M N O P Q R S T U V W X Y Z # 

Burning The Water Brown Bass
Version #1
Killradio


Copy URL
This is my Tab to the amazing song "Burning The Water Brown" by Killradio.
It's sad, that this band doesn't exist anymore, 'cause their Bass lines are 
amazing. Best example is this song. Have fun to learn it!

Please don't forget to rate and check out my other tabs!

Intro (0:07)
G|----------------|----------------|----------------|
D|--------15/8----|----------------|----------------|
A|----------------|----------------|----------------|
E|------------16/~|4-4-4-4-4-4-4-4-|4-4-5-5-6-6-4-4-|
  H       Q   Q    E E E E E E E E  E E E E E E E E

Verse 1
G|----------------|----------------|----------------|----------------|
D|----------------|----------------|----------------|----------------|
A|4-4---4---------|1-1---1-1-1---1-|4-4---4---------|1-1---1-1-1---1-|
E|--------1-1---1-|----------------|--------1-1---1-|----------------|
  E E E E E E E E  E E E E E E E E  E E E E E E E E  E E E E E E E E

G|----------------|----------------|----------------|----------------|
D|----------------|----------------|----------------|----------------|
A|4-4---4---------|1-1-1-1-1-1-1-1-|----------------|----------------|
E|--------1-1---1-|----------------|4-4-4-4-4-4-4-4-|4-4-5-5-6-6-7-7-|
  E E E E E E E E  E E E E E E E E  E E E E E E E E  E E E E E E E E

Chorus
G|----------------|------------3---|----------------|6~~6~~----------|
D|--------3-4-6-4~|~~4-4-4-3-4---44|~~4-4-4-4-4-4-4-|------6~~~------|
A|4~~4~~4---------|----------------|----------------|----------------|
E|----------------|----------------|----------------|----------2-4-2-|
  E. E. E E E E E E  E E E E E E SS E.E E E E E E E  E. E. Q   E E E

G|----------------|------------3---|----------------|----------------|
D|--------3-4-6-4~|~~4-4-4-3-4---4-|6-6-6-6-6-6-6-6-|6-6-6-6-6-6-6-6-|
A|4~~4~~4---------|----------------|----------------|----------------|
E|----------------|----------------|----------------|----------------|
  E. E. E E E E E E  E E E E E E E  E E E E E E E E  E E E E E E E E

Verse 2
G|----------------|----------------|----------------|----------------|
D|----------------|----------------|----------------|----------------|
A|4-4---4---------|1-1---1-1-1---1-|4-4---4---------|1-1---1-1-1---1-|
E|--------1-1---1-|----------------|--------1-1---1-|----------------|
  E E E E E E E E  E E E E E E E E  E E E E E E E E  E E E E E E E E

G|----------------|----------------|----------------|----------------|
D|----------------|----------------|----------------|----------------|
A|4-4---4---------|1-1-1-1-1-1-1-1-|----------------|----------------|
E|--------1-1---1-|----------------|4-4-4-4-4-4-4-4-|4-4-5-5-6-6-7-7-|
  E E E E E E E E  E E E E E E E E  E E E E E E E E  E E E E E E E E

G|----------------|----------------|----------------|----------------|
D|----------------|----------------|----------------|----------------|
A|4-4-4-4---------|1-1-1-1-1-1-1-1-|4-4-4-4---------|1-1-1-1-1-1-1-1-|
E|--------1-1-1-1-|----------------|--------1-1-1-1-|----------------|
  E E E E E E E E  E E E E E E E E  E E E E E E E E  E E E E E E E E

G|----------------|----------------|----------------|----------------|
D|----------------|----------------|----------------|----------------|
A|4-4-4-4---------|1-1-1-1-1-1-1-1-|----------------|----------------|
E|--------1-1-1-1-|----------------|4-4-4-4-4-4-4-4-|4-4-5-5-6-6-7-7-|
  E E E E E E E E  E E E E E E E E  E E E E E E E E  E E E E E E E E

Chorus (2x)

Bridge
G|----------------|----------------|----------4-----|--------4-------|
D|----------------|----------------|6~~~6-6-6---6-4-|6-6-6-6---6-4-6-|
A|6-6-6-6-6-6-6-6-|4-4-4-4-4-4-4-4-|----------------|----------------|
E|----------------|----------------|----------------|----------------|
  E E E E E E E E  E E E E E E E E  Q   E E E E E E  E E E E E E E E

G|----------------|--------6-4-----|----------------|----------4-----|
D|--------4-------|6~~~6-6-----6~~~|6~~6~~4-6~~6~~4-|6~~6~~4-6---6-4-|
A|6-6-6-6---6-4-6-|----------------|----------------|----------------|
E|----------------|----------------|----------------|----------------|
  E E E E E E E E  Q   E E E E Q    E. E. E E. E. E  E. E. E E E E E

G|----------------|----------------|----------------|----------------|
D|--------4-------|6-4---4---------|----------------|----------------|
A|6-6-6-6---6-4~~~|----6---6-4-6-4-|----------------|----------2-----|
E|----------------|----------------|4~~4~~2-4~~4~~2-|4~~4~~2-4---4-2-|
  E E E E E E Q    Q   E E E E Q    E. E. E E. E. E  E. E. E E E E E

G|----------------|----------------|----------------|-----------------|
D|----------------|----------------|----------------|-----------------|
A|----------------|4~~~~~~~~~~~~~~~|----------------|-----------------|
E|2~~~~~~~~~~~~~~~|----------------|4-4-4-4-4-4-4-4\|1616161616161616/|
  F                F                E E E E E E E E  E E E E E E E E

Bass Solo (play with an effect)
G|----6~~~--------|--3~~~5~~~6~~~8-|----6~~~--------|--3~~~5~~~6~~~8-|
D|------------3~~~|----------------|------------3~~~|----------------|
A|4-4-------------|1~~~3~~~4~~~6~~~|4-4-------------|1~~~3~~~4~~~6~~~|
E|--------1-1-----|----------------|--------1-1-----|----------------|
  E E Q   E E Q    E E E E E E E E  E E Q   E E Q    E E E E E E E E

G|----6~~~--------|--3~~~5~~~6~~~8\|----------------|-----------------|
D|------------3~~~|----------------|----------------|-----------------|
A|4-4-------------|1~~~3~~~4~~~6~~\|----------------|-----------------|
E|--------1-1-----|----------------|1616161616161616|1616161616161616/|
  E E Q   E E Q    E E E E E E E E  E E Q   E E Q    E E E E E E E E

Chorus (2x)

Outro
G|----------------|----------------|----------------|----------------|
D|----------------|----------------|----------------|----------------|
A|4~~~~~4---------|--------4~~~~~4-|----------------|----------------|
E|--------4~~~~~4-|1~~~~~1---------|2-2-2-2-2-2-2-2-|4-4-4-4-4-4-4-4-|
  Q.    E Q.    E  Q.    E Q.    E  E E E E E E E E  E E E E E E E E

G|----------------|----------------|----------------|----------------|
D|----------------|----------------|----------------|----------------|
A|4~~~~~4---------|--------4~~~~~4-|----------------|----------------|
E|--------4~~~~~4-|1~~~~~1---------|4-4-4-4-4-4-4-4-|1-1-1-1-1-1-1-1-|
  Q.    E Q.    E  Q.    E Q.    E  E E E E E E E E  E E E E E E E E

Outro
F = Full note
H = Half note
Q = Quarter note
E = Eighth note
S = Sixteenth note
. = makes the note a half longer
\ = Slide up
/ = Slide down
h = Hammer-on
p = Pull-off
b = Bending
X = Mute note
            
Submit corrections

↑ Back to top | Tablatures and chords for acoustic guitar and electric guitar, ukulele, drums are parodies/interpretations of the original songs. You may use it for private study, scholarship, research or language learning purposes only