» » »

Kid Rock - Midnight Ferry Tabs

Artists:  A B C D E F G H I J K L M N O P Q R S T U V W X Y Z # 

Midnight Ferry Tabs

(ver. 1) Click to play this song!
Kid Rock
 Rating:
4.3/5 (18 votes)

 Midnight Ferry  lessons Tabs too difficult? Try these video lessons and learn fast
 
                  [INTRO]

  D                G             D
e|------10-------|-------------|-------------|
B|---------------|-----8-------|-------------|
G|-9/11----------|-------------|-----7-------|
D|---------------|-7/9---------|-------------|
A|---------------|-------------|-7/9---------|
E|---------------|-------------|-------------|

  A                D               G             D
e|-----9---7---5-|------10-------|-------------|-----------|
B|---------------|---------------|-----8-------|-----------|
G|-7/9---7---6---|-9/11----------|-------------|-----7-----|
D|---------------|---------------|-7/9---------|-----------|
A|---------------|---------------|-------------|-7/9-------|
E|---------------|---------------|-------------|-----------|

  A          A  A# Bm       G      Bm    G       D  A    G
e|---------|-5--6--7-|----------7-|-7--------7-|-2--5----3---|
B|-----10--|-5--6--7-|------------|-7----------|-3--5----3---|
G|-7/9-----|-6--7--7-|------5/7---|-7----5/7---|-2--6----4---|
D|---------|-7--8--9-|------------|-9----------|-0--7----5---|
A|---------|-7--8--9-|------------|-9----------|----7----5---|
E|---------|-5--6--7-|------------|-7----------|----5----3---|

   D
e|-10/12\10------------------|----|
B|-10/12\10--/10-9\7---7-7---|----|
G|-----------/11-9\7---7-7---|----|
D|-------------------9-----9-|----|
A|---------------------------|----|
E|---------------------------|----|            
Submit corrections


        Midnight Ferry  lessons Hard to play? Try these video lessons and learn fast Midnight Ferry  lessons
        
↑ Back to top | Tablatures and chords for acoustic guitar and electric guitar, ukulele, drums are parodies/interpretations of the original songs. You may use it for private study, scholarship, research or language learning purposes only