Home » K » Kevin Devine »

Kevin Devine - Safe Tabs

Artists:  A B C D E F G H I J K L M N O P Q R S T U V W X Y Z # 

Safe Tabs

(ver. 1) Click to play this song!
Kevin Devine
Tuning: Half Step Down
                                                                                second time end on
eb|---------------------------------------------------------------------------| |-----------------|
Bb|----------0------------2------------3-------------8------------------------| |------12---------|
Gb|-------2------------2-----------5------------9-----------------------------| |------12---------|
Db|-----0---0--------2---2-------4---5-------10---10--------------------------| |------10---------|
Ab|---3------------4-----------5-----------0----------------------------------| |-------0---------|
Eb|---------------------------------------------------------------------------| |-----------------|


       C/G     G    D    Am             C/G    D7   G         C         D  D7
eb|------------3----2--------------------------2----3-------------------2--2--|
Bb|-----1------0----3----1---------------1-----1----0---------1---------3--1--|
Gb|-----0------0----2----2--------0h2----0-----2----0---------0---------2--2--|
Db|-----2------0----0----2---0h2---------2-----0----0---------2---------0--0--|
Ab|-----3------2---------0---------------3----------x-----0-2-3--3-2-3--------|
Eb|-----3------3-------------------------3----------3---3---------------------|


In the end he changes to:

     G         C          D    D7        G         C         D  Db
eb|--3--------------------2----2---------3-------------------2--2--------------|
Bb|--0---------1----------3----1---------0---------1---------3--1--------------|
Gb|--0---------0----------2----2---------0---------0---------2--2--------------|
Db|--0---------2----------0----0---------0---------2---------0--1--------------|
Ab|--x-----0-2-3--3-2-3------------------x-----0-2-3--3-2-3--------------------|
Eb|--3--3--------------------------------3--3----------------------------------|

     Em          Am        D7
eb|------------------------2---------------------------------------------------|
Bb|--0-----------1---------1---------------------------------------------------|
Gb|--0-----------2---------2---------------------------------------------------|
Db|--2-----------2---------0---------------------------------------------------|
Ab|--2-----------0--0-2-3------------------------------------------------------|
Eb|--0--0-2-3------------------------------------------------------------------|

End on G 
            
Submit corrections

↑ Back to top | Tablatures and chords for acoustic guitar and electric guitar, ukulele, drums are parodies/interpretations of the original songs. You may use it for private study, scholarship, research or language learning purposes only