Home » K » Kevin Devine »

Kevin Devine - Cotton Crush Tabs

Artists:  A B C D E F G H I J K L M N O P Q R S T U V W X Y Z # 

Cotton Crush Tabs

(ver. 1) Click to play this song!
Kevin Devine
Im not sure what the other guy who posted tabs for the song was smokin' but I would hope
god that he didnt play the song for anyone that way. Not talkin smack bro but that was
off. My tab is nott 100% correct considering there are quite a few notes played as 
which I didnt include, but it is perfectly fine to play all the way through and sound
for corrections!!!


Standard E Tuning

e------------------------------------------|
B--2^4--4-4-4-4-4-4-4-4-4-2-2-2-2-2-2-2----|
G--2----2-2-2-2-2-2-2-2-2-2-2-2-2-2-2-2----|
D--2----2-2-2-2-2-2-2-2-2-2-2-2-2-2-2-2----|
A------------------------------------------|
E------------------------------------------|

e------------------------------------------|
B--2^4--4-4-4-4-4-4-4-4-4-2-2-2-2-2-2-2----|
G--2----2-2-2-2-2-2-2-2-2-2-2-2-2-4-2-4----|
D--2----2-2-2-2-2-2-2-2-2-2-2-2-2-2-2-2----|
A------------------------------------------|
E------------------------------------------|

               And the bricks get laid, and they get torn up...

e------------------------------------------|
B--2^4--4-4-4-4-4-4-4-4-4-2-2-2-2-2-2-2----|
G--2----2-2-2-2-2-2-2-2-2-2-2-2-2-2-2-2----|
D--2----2-2-2-2-2-2-2-2-2-2-2-2-2-2-2-2----|
A------------------------------------------|
E------------------------------------------|

               But the bricks always get torn up again....

e------------------------------------------|
B--2^4--4-4-4-4-4-4-4-4-4-2-2-2-2-2-2-2----|
G--2----2-2-2-2-2-2-2-2-2-2-2-2-2-2-2-2----|
D--2----2-2-2-2-2-2-2-2-2-2-2-2-2-2-2-2----|
A------------------------------------------|
E------------------------------------------|

e-----------------------------------------------------|
B-----------------------------------------------------|
G-----------------------------------------------------|
D--2-2-2-2-2-2-2-2-2-2-2-2-2-2-2-2-2-2-2-2-2-2-2-2----|
A--4-4-4-4-4-4-4-4-4-4-4-4-4-4-4-4-4-4-4-4-4-4-4-4----|
E--4-4-4-4-4-4-4-4-4-4-4-4-4-4-4-4-4-4-4-4-4-4-4-4----|

               And your friends wont wait, so dont believe that sh*t.

e------------------------------------------|
B--2^4--4-4-4-4-4-4-4-4-4-2-2-2-2-2-2-2----|
G--2----2-2-2-2-2-2-2-2-2-2-2-2-2-2-2-2----|
D--2----2-2-2-2-2-2-2-2-2-2-2-2-2-2-2-2----|
A------------------------------------------|
E------------------------------------------|

               And they say they'll wait, cause trust me your
e------------------------------------------|
B--2^4--4-4-4-4-4-4-4-4-4-2-2-2-2-2-2-2----|
G--2----2-2-2-2-2-2-2-2-2-2-2-2-2-2-2-2----|
D--2----2-2-2-2-2-2-2-2-2-2-2-2-2-2-2-2----|
A------------------------------------------|
E------------------------------------------|

              friends will not wait for you.
 e------------------------------------------------------|
B-------------------------------------------------------|
G-------------------------------------------------------|
D--2-2-2-2-2-2-2-2-2-2-2-2-2-2-2-2-2-2-2-2-2-2-2-2------|
A--4-4-4-4-4-4-4-4-4-4-4-4-4-4-4-4-4-4-4-4-4-4-4-4------|
E--4-4-4-4-4-4-4-4-4-4-4-4-4-4-4-4-4-4-4-4-4-4-4-4------|


 Then you'll be stoned in some park, just nodding your head and pinching...
e---------------------------------------------------------------------|
B---------------------------------------------------------------------|
G--2-2-2-2-2-2-2-2-4-4-4-4-4-4-4-4-6-6-6-6-6-6-6-6-9-9-9-9-9-9-9-9----|
D--2-2-2-2-2-2-2-2-4-4-4-4-4-4-4-4-6-6-6-6-6-6-6-6-9-9-9-9-9-9-9-9----|
A--0-0-0-0-0-0-0-0-2-2-2-2-2-2-2-2-4-4-4-4-4-4-4-4-7-7-7-7-7-7-7-7----|
E---------------------------------------------------------------------|

 When a girl walks along, she's humming your song with your t-shirt on...
e---------------------------------------------------------------------|
B---------------------------------------------------------------------|
G--2-2-2-2-2-2-2-2-4-4-4-4-4-4-4-4-6-6-6-6-6-6-6-6-9-9-9-9-9-9-9-9----|
D--2-2-2-2-2-2-2-2-4-4-4-4-4-4-4-4-6-6-6-6-6-6-6-6-9-9-9-9-9-9-9-9----|
A--0-0-0-0-0-0-0-0-2-2-2-2-2-2-2-2-4-4-4-4-4-4-4-4-7-7-7-7-7-7-7-7----|
E---------------------------------------------------------------------|

 Thats when you're done....
e--0-0-0-0-0-0-0-0-0-0-0-0-0-0-0-0-0-0-0-0-0-0-0-0-0-0-0-0-0-0-0-0----|
B--7-7-7-7-7-7-7-7-7-7-7-7-7-7-7-7-7-7-7-7-7-7-7-7-7-7-7-7-7-7-7-7----|
G--9-9-9-9-9-9-9-9-9-9-9-9-9-9-9-9-9-9-9-9-9-9-9-9-9-9-9-9-9-9-9-9----|
D--9-9-9-9-9-9-9-9-9-9-9-9-9-9-9-9-9-9-9-9-9-9-9-9-9-9-9-9-9-9-9-9----|
A---------------------------------------------------------------------|
E---------------------------------------------------------------------|

e--0-0-0-0-0-0-0-0-0-0-0-0-0-0-0-0-0-0-0-0-0-0-0-0-0-0-0-0-0-0-0-0----|
B--0-0-0-0-0-0-0-0-0-0-0-0-0-0-0-0-0-0-0-0-0-0-0-0-0-0-0-0-0-0-0-0----|
G--9-9-9-9-9-9-9-9-9-9-9-9-9-9-9-9-9-9-9-9-9-9-9-9-9-9-9-9-9-9-9-9----|
D--9-9-9-9-9-9-9-9-9-9-9-9-9-9-9-9-9-9-9-9-9-9-9-9-9-9-9-9-9-9-9-9----|
A--7-7-7-7-7-7-7-7-7-7-7-7-7-7-7-7-7-7-7-7-7-7-7-7-7-7-7-7-7-7-7-7----|
E---------------------------------------------------------------------|

           There's a cotton crush....
e------------------------------------------|
B------------------------------------------|
G------------------------------------------|
D--7-7-7-7----7-7-7----7-7-7-7----7-7-7----|
A--7-7-7-7----7-7-7----7-7-7-7----7-7-7----|
E--5-5-5-5----5-5-5----5-5-5-5----5-5-5----|

   Thread and space to waste waste waste...
e---------------------------------------------------------------------|
B---------------------------------------------------------------------|
G--6-6-6-6-6-6-6-6-6-6-6-6-6-6-6-6-6-6-6-6-6-6-6-6-6-6-6-6-6-6-6-6----|
D--6-6-6-6-6-6-6-6-6-6-6-6-6-6-6-6-6-6-6-6-6-6-6-6-6-6-6-6-6-6-6-6----|
A--4-4-4-4-4-4-4-4-4-4-4-4-4-4-4-4-4-4-4-4-4-4-4-4-4-4-4-4-4-4-4-4----|
E---------------------------------------------------------------------|

   And there's a microphone, picking every word up....
e---------------------------------------------------------------------|
B---------------------------------------------------------------------|
G---------------------------------------------------------------------|
D--7-7-7-7-7-7-7-7-7-7-7-7-7-7-7-7-7-7-7-7-7-7-7-7-7-7-7-7-7-7-7-7----|
A--7-7-7-7-7-7-7-7-7-7-7-7-7-7-7-7-7-7-7-7-7-7-7-7-7-7-7-7-7-7-7-7----|
E--5-5-5-5-5-5-5-5-5-5-5-5-5-5-5-5-5-5-5-5-5-5-5-5-5-5-5-5-5-5-5-5----|

   Heard enough oh, heard enough oh, heard enough...
e---------------------------------------------------------------------|
B---------------------------------------------------------------------|
G--6-6-6-6-6-6-6-6-6-6-6-6-6-6-6-6-6-6-6-6-6-6-6-6-6-6-6-6-6-6-6-6----|
D--6-6-6-6-6-6-6-6-6-6-6-6-6-6-6-6-6-6-6-6-6-6-6-6-6-6-6-6-6-6-6-6----|
A--4-4-4-4-4-4-4-4-4-4-4-4-4-4-4-4-4-4-4-4-4-4-4-4-4-4-4-4-4-4-4-4----|
E---------------------------------------------------------------------|

   Because the quite can scr*pe, all the calm from your bones...
e---------------------------------------------------------------------|
B---------------------------------------------------------------------|
G--2-2-2-2-2-2-2-2-4-4-4-4-4-4-4-4-6-6-6-6-6-6-6-6-9-9-9-9-9-9-9-9----|
D--2-2-2-2-2-2-2-2-4-4-4-4-4-4-4-4-6-6-6-6-6-6-6-6-9-9-9-9-9-9-9-9----|
A--0-0-0-0-0-0-0-0-2-2-2-2-2-2-2-2-4-4-4-4-4-4-4-4-7-7-7-7-7-7-7-7----|
E---------------------------------------------------------------------|

   to get up and grow, and stop f**king around....
e---------------------------------------------------------------------|
B---------------------------------------------------------------------|
G--2-2-2-2-2-2-2-2-4-4-4-4-4-4-4-4-6-6-6-6-6-6-6-6-9-9-9-9-9-9-9-9----|
D--2-2-2-2-2-2-2-2-4-4-4-4-4-4-4-4-6-6-6-6-6-6-6-6-9-9-9-9-9-9-9-9----|
A--0-0-0-0-0-0-0-0-2-2-2-2-2-2-2-2-4-4-4-4-4-4-4-4-7-7-7-7-7-7-7-7----|
E---------------------------------------------------------------------|

   to find a simpler sound.....
e---------------------------------------------------------------------|
B---------------------------------------------------------------------|
G--2-2-2-2-2-2-2-2-4-4-4-4-4-4-4-4-6-6-6-6-6-6-6-6-9-9-9-9-9-9-9-9----|
D--2-2-2-2-2-2-2-2-4-4-4-4-4-4-4-4-6-6-6-6-6-6-6-6-9-9-9-9-9-9-9-9----|
A--0-0-0-0-0-0-0-0-2-2-2-2-2-2-2-2-4-4-4-4-4-4-4-4-7-7-7-7-7-7-7-7----|
E---------------------------------------------------------------------|

          simpler sound than the sh*t that's clouding our heads now...
e---------------------------------------------------------------------|
B---------------------------------------------------------------------|
G--2-2-2-2-2-2-2-2-4-4-4-4-4-4-4-4-6-6-6-6-6-6-6-6-9-9-9-9-9-9-9-9----|
D--2-2-2-2-2-2-2-2-4-4-4-4-4-4-4-4-6-6-6-6-6-6-6-6-9-9-9-9-9-9-9-9----|
A--0-0-0-0-0-0-0-0-2-2-2-2-2-2-2-2-4-4-4-4-4-4-4-4-7-7-7-7-7-7-7-7----|
E---------------------------------------------------------------------|

e---------------------------------------------------------------------|
B---------------------------------------------------------------------|
G--2-2-2-2-2-2-2-2-4-4-4-4-4-4-4-4-6-6-6-6-6-6-6-6-9-9-9-9-9-9-9-9----|
D--2-2-2-2-2-2-2-2-4-4-4-4-4-4-4-4-6-6-6-6-6-6-6-6-9-9-9-9-9-9-9-9----|
A--0-0-0-0-0-0-0-0-2-2-2-2-2-2-2-2-4-4-4-4-4-4-4-4-7-7-7-7-7-7-7-7----|
E---------------------------------------------------------------------|

e---------------------------------------------------------------------|
B---------------------------------------------------------------------|
G--2-2-2-2-2-2-2-2-4-4-4-4-4-4-4-4-6-6-6-6-6-6-6-6-9-9-9-9-9-9-9-9----|
D--2-2-2-2-2-2-2-2-4-4-4-4-4-4-4-4-6-6-6-6-6-6-6-6-9-9-9-9-9-9-9-9----|
A--0-0-0-0-0-0-0-0-2-2-2-2-2-2-2-2-4-4-4-4-4-4-4-4-7-7-7-7-7-7-7-7----|
E---------------------------------------------------------------------|

Repeat to the end....
e---------------------------------------------------------------------------|
B---------------------------------------------------------------------------|
G---------------------------------------------------------------------------|
D--4-4-4-6-6-6-8-8-11-11-11-8-8-8-6-6-4-4-4-6-6-6-8-8-11-11-11-8-8-8-6-6----|
A--0-0-0-0-0-0-0-0-0--0--0--0-0-0-0-0-0-0-0-0-0-0-0-0-0--0--0--0-0-0-0-0----|
E---------------------------------------------------------------------------|


on!!!!
            
Submit corrections

↑ Back to top | Tablatures and chords for acoustic guitar and electric guitar, ukulele, drums are parodies/interpretations of the original songs. You may use it for private study, scholarship, research or language learning purposes only