» » »

Kent - Den Vanstra Stranden Tabs

Artists:  A B C D E F G H I J K L M N O P Q R S T U V W X Y Z # 

Den Vanstra Stranden Tabs

(ver. 1) Click to play this song!
Kent
 Rating:
4.3/5 (20 votes)

 Den Vanstra Stranden  lessons Tabs too difficult? Try these video lessons and learn fast
 
                e|-------------------------------------------------------------------------------------|
B|----10/12-15-12-10-------------------------------10/12-15-12-10----------------------|
G|------------------11b12-11-9-------------12h14-12--------------11b12-11-9-7-9--------|
D|----------------------------10-9----12h14--------------------------------------------|
A|--------------------------------7-10-------------------------------------------------|
E|-------------------------------------------------------------------------------------|

e|-------------------------------------------------------------------------------------|
B|----10/12-15-12-10-------------------------------10/12-15-12-10----------------------|
G|------------------11b12-11-9-------------12h14-12--------------11b12-11-9------------|
D|----------------------------10-9----12h14--------------------------------10-9--------|
A|--------------------------------7-10-------------------------------------------------|
E|-------------------------------------------------------------------------------------|
            
Submit corrections


        Den Vanstra Stranden  lessons Hard to play? Try these video lessons and learn fast Den Vanstra Stranden  lessons
        
↑ Back to top | Tablatures and chords for acoustic guitar and electric guitar, ukulele, drums are parodies/interpretations of the original songs. You may use it for private study, scholarship, research or language learning purposes only