» » »

Kent - Berg & Dalvana Tabs

Artists:  A B C D E F G H I J K L M N O P Q R S T U V W X Y Z # 

Berg & Dalvana Tabs

(ver. 1) Click to play this song!
Kent
 Rating:
4/5 (4 votes)

 Berg & Dalvana lessons Tabs too difficult? Try these video lessons and learn fast
 
                intro: |Am    |Em    |Am    |Em    |
       |Am    |Em    |C     |C     |

   Am            Em                   C
e--------------------------------    -------------------
B-------0------------------------    -------------------
G---5------5---0-------0---------    --------0----------
D-----7------7-----0-------0---0-    ---0-------0----0--
A-0------------------9---9---9---    -----10------10----
E----------------7--------------- x3 -8----------------- x2

      Am             Em
  på vägen tvättas spåren bort
     A7/C#        C
  en olycka blir minnen blott
   Am               Em
  rusningstid strax innan jul
     A7/C#            C
  så glömmer nån ett varningsljus

|C    |

                Am
  När jag blir grå
Em                Am            Em
  när jag faller, orkar du för två?
        D         Am
  när idag blir igår
Em              C            G    D/F#
  kommer du att älska mig ändå?


|C     |D     |Em    |D     | 2x

 Gitarr:
G-5-3-4-0---------5-3-4-0-------------5-3-4-0---------5-3-4-0------------
D----------/7--5-----------/2--0---------------/7--5-----------/2--0-----
A---------------------------------3-----------------------------------0--

|Am    |Em    |Am    |Em    |
|Am    |Em    |C     |C     |


      Am                 Em
  en gammal sång får en helt ny text
     A7/C#            C
  en äcklig röst som billig sex
       Am           Em
  och jag har inga vänner kvar
  A7/C#          C
  visst är livet underbart


                Am
  När jag blir grå
Em                Am            Em
  när jag faller, orkar du för två?
        D         Am
  när idag blir igår
Em              C            G    D/F#
  kommer du att älska mig ändå?

 Gitarr:
G-5-3-4-0---------5-3-4-0-------------5-3-4-0---------5-3-4-0------------
D----------/7--5-----------/2--0---------------/7--5-----------/2--0-----
A---------------------------------3-----------------------------------3-- 2x

|C    |D    |Em   |D    | 4x

C                   D                     Em     D
  det spelar ingen roll om du håller mig hårt
C                   D               Em       D
  ingen kommer att minnas om hundra år
C                       D              Em       D
  jag är rädd att man glömmer, glömmer allt
C                      D        Em 
  som vi glömde att vi älskade varann

       D          C           D      Em
  håll ut, jag behöver dig
       D          C           D      Em
  håll ut, jag behöver dig
       D          C           D      Em
  håll ut, jag behöver dig
       D       C          D    Em
  håll ut, stå ut med mig, stå ut med mig
D        C       D        Em        D
  jag behöver dig, jag behöver dig
      C         D        Em        D
  stå ut med mig, jag behöver dig
      C         D     Em          D
  jag älskar dig, stå ut med mig

         C       D     Em      D
  jag behöver dig, stå ut med mig
         Am   Em/B    Am    Em/B 
  jag behöver...     Dig

|Am    |Em    |C    |C#dim |

   Am               Em                       Am               Em
e|----------------|------------------|     |----------------|-----------------|
B|-------0--------|------------------|     |-------0--------|-----------------|
G|---5------5---0-|-------0----------|     |---5------5---0-|-------0---------|
D|-----7------7---|---0-------0---0--|     |-----7------7---|---0-------0---0-|
A|-0--------------|-----9---9---9----|     |-0--------------|-----9---9---9---|
E|----------------|-7----------------| x3  |----------------|-7---------------|


   C                 C#dim               
e|-----------------|--------------------
B|-----------------|--------------------
G|--------0--------|--------0-----------
D|---0------0----0-|---0---------0----0-
A|-----10-----10---|-----10---10---10---
E|-8---------------|-9------------------



Kommentar: Om du vill kan du spela lite mer avancerade ackord:
           Verserna: 
           Byt ut Am mot Amadd9 (x07500), Em mot Emadd9 (024000)
           sl*tet:
           Byt ut D mot Dadd4/add9 (x54030), Em spelas då 075000
           C#dim (i övergången till nästa låt på skivan): x4535x
            
Submit corrections


        Berg & Dalvana lessons Hard to play? Try these video lessons and learn fast Berg & Dalvana lessons
        
↑ Back to top | Tablatures and chords for acoustic guitar and electric guitar, ukulele, drums are parodies/interpretations of the original songs. You may use it for private study, scholarship, research or language learning purposes only