» » »

Kenny Chesney - Grandpa Told Me So Tabs

Artists:  A B C D E F G H I J K L M N O P Q R S T U V W X Y Z # 

Grandpa Told Me So Tabs

(ver. 1) Click to play this song!
Kenny Chesney
 Rating:
4/5 (4 votes)

 Grandpa Told Me So lessons Tabs too difficult? Try these video lessons and learn fast
 
                Intro

Capo 4

E-----------------------------------
B-----------------------------------
G-----------------------------------
D-2/4-2-0-2/4-4/2-0---0-------------
A-------------------4---2-----------
E-----------------------------------

Open

E-----------------------------------
B-----------------------------------
G-----------------------------------
D-6/8-6-4-6/8-8/6-4-3-4-------------
A-----------------------6-----------
E-----------------------------------

Solo 1

E-----------------------------------
B-------------------11----13b-13-11-
G-6/8-6-4-6/8-11/13----13-----------
D-----------------------------------
A-----------------------------------
E-----------------------------------

E-----------------------------------
B----------------------13b-13b-13b--
G-----------------------------------
D-6b-4---4-6/8-6-4-6/8--------------
A------6----------------------------
E-----------------------------------

E-----------------------------------
B-----------------------------------
G-13-11-6---------------------------
D---------8-6-4---------------------
A-----------------------------------
E-----------------------------------

Solo 2

E-----------------------------------
B-----------------------------------
G-----------------------------------
D--------------11-11----------------
A-x-11-9-11/13-------13-11-11-9-9---
E---------------------------------11

E-----------------------------------
B-----------------------------------
G-----------------------------------
D-----------------------------------
A-13b-13b-13p11-11-9-13b-13b-13p11--
E-----------------------------------

E-------------------------------------
B-------------------------------------
G------------11---13---13---13-11---11
D------11/13----x----x----x------13---
A-11-9--------------------------------
E-------------------------------------
            
Submit corrections


        Grandpa Told Me So lessons Hard to play? Try these video lessons and learn fast Grandpa Told Me So lessons
        
↑ Back to top | Tablatures and chords for acoustic guitar and electric guitar, ukulele, drums are parodies/interpretations of the original songs. You may use it for private study, scholarship, research or language learning purposes only