» » »

Kenny Chesney - Flora-Bama Tabs

Artists:  A B C D E F G H I J K L M N O P Q R S T U V W X Y Z # 

Flora-Bama Tabs

(ver. 1) Click to play this song!
Kenny Chesney
 Rating:
4.3/5 (20 votes)

 Flora-Bama  lessons Tabs too difficult? Try these video lessons and learn fast
 
                e|----------------------------------|-----------------------------------|
B|-3-3-3-3/5------------------------|-1/3-3-3-3h5-----------------------|
G|-----------4-2p0-2/4-4-4-4br-2----|-------------4-2p0-2/4-4-4-4br-2---|
D|-------------------------------5--|---------------------------------5-|
A|----------------------------------|-----------------------------------|
E|----------------------------------|-----------------------------------|

e|----------------------------10-12-----------|------10---10---10---10---10---------------------------|
B|-------------8-10---8-10/12-------12\10-8---|-8-10b--10b--10b--10b--10b---10b-10b-10-8-10b-10b-10---|
G|---------7-9------9-----------------------9-|-----------------------------------------------------9-|
D|-----5-7------------------------------------|-------------------------------------------------------|
A|-5-7----------------------------------------|-------------------------------------------------------|
E|--------------------------------------------|-------------------------------------------------------|

e|----10-----------|-------------------------------------------------------------------------|
B|-10bbbrp8-10---8-|-------------------------------------------------------------------12----|
G|-------------9---|-------------------------------------------------12----12-14-12-14----14-|
D|-----------------|-------------------------------12----12-14-12-14----14-------------------|
A|-----------------|-------------12----12-14-12-14----14-------------------------------------|
E|-----------------|-12-15-12-15----15-------------------------------------------------------|

e|-------------12----12-15/17-17-15----15-17-17b-15----15-|-20b-20-19-20-19-20-20b-20-19-20-19--------------|
B|-12-15-12-------15----------------17--------------17----|------------------------------------20-20b-3/5-5-|
G|----------15--------------------------------------------|-------------------------------------------------|
D|--------------------------------------------------------|-------------------------------------------------|
A|--------------------------------------------------------|-------------------------------------------------|
E|--------------------------------------------------------|-------------------------------------------------|            
Submit corrections


        Flora-Bama  lessons Hard to play? Try these video lessons and learn fast Flora-Bama  lessons
        
↑ Back to top | Tablatures and chords for acoustic guitar and electric guitar, ukulele, drums are parodies/interpretations of the original songs. You may use it for private study, scholarship, research or language learning purposes only