» » »

Kelly Family - One More Song Tabs

Artists:  A B C D E F G H I J K L M N O P Q R S T U V W X Y Z # 

One More Song Tabs

(ver. 2) Click to play this song!
Kelly Family
 Rating:
4/5 (4 votes)


 One More Song lessons Tabs too difficult? Try these video lessons and learn fast
 
                ----------------------------------------------------------|
----------7-----------8---7--7----7--5--5  slide to 19----|
-4--6--7----4--6---7------------2-------------------------|
----------------------------------------------------------|
----------------------------------------------------------|
----------------------------------------------------------|


--------------------------------------------------------^^----------------|
--19----------------19----------------20---19--19-------19--17--17--------|
------16---18---19------16---18---19---------------14---------------------|
--------------------------------------------------------------------------|
--------------------------------------------------------------------------|
--------------------------------------------------------------------------|
            
Submit corrections



        One More Song lessons Hard to play? Try these video lessons and learn fast One More Song lessons
        
↑ Back to top | Tablatures and chords for acoustic guitar and electric guitar, ukulele, drums are parodies/interpretations of the original songs. You may use it for private study, scholarship, research or language learning purposes only