» » »

Keith Whitley - Tell Lorrie I Love Her Tabs

Artists:  A B C D E F G H I J K L M N O P Q R S T U V W X Y Z # 

Tell Lorrie I Love Her Tabs

(ver. 1) Click to play this song!
Keith Whitley
 Rating:
4/5 (4 votes)

 Tell Lorrie I Love Her lessons Tabs too difficult? Try these video lessons and learn fast
 
                Keith Whitley - Tell Lorrie I Love Her (picking pattern)


The recording I downloaded is slightly de-tuned, but it should be in G.
The picking changes slightly throughout the song, but it's always 
something similar to this tab.
The words and chords are already submitted, so use them to help follow
this tab.

***********************************************************************

INTRO

E----------------------------------------|
B-------0------0---0-----0---0---0---0---|
G-----2--2---2----2------2--2---2---2----|
D----0----0---0--0-----0-0-0---0---0-----|
A---2-----------------2------------------|
E--3---3----3---3----3----3---3---3------|



1st VERSE

E--------------------------------------------------------------------
B-----0---0---0--0----1---1-----0-0--3----1---1----0----0----0----0--
G----2---2---2---2----0---0----2---0--0----0--0----0----0----0----0--
D---0---0---0---0-0--2-2-2-2--0----------2---2-2--0-0--0-0--0-0--0-0-
A-------------------3-------------0--2--3----------------------------
E--3---3---3---3--------3----3--------------3----3----3----3----3----


E-----0--0-0---2---2----------------------------------------------
B----1-1-1-1---1---1----0---0---0---0----1---1----0---0----1---1--
G---2----2-2--2-2-2-2---0---0---0---0----0---0----0---0----0---0--
D--0----0----0---------0-0-0-0-0-0-0-0--2-2-2-2--0-0-0-0--2-2-2-2-
A----------------0---------------------3-----------------3--------
E---------------------3---3---3---3--------3----3---3--------3----


E-------------2---2--------------|
B----0----0---1---1-----0---0-0--|
G----0---0---2-2-2-2---0----0-0--|
D---0-0-0---0---------0----0-----|
A---------------0---------2------|
E--3---3-------------3-----------|



1st CHORUS


E--------------------------------------------------2-2---2--2---2--
B----0---0----1---1---1---1-----0----0--0-0--0-0---1----1---1---1--
G----0---0----0---0---0---0----0---0-0--0-0--0-0--2----2---2-2-2-2-
D---0-0-0-0--2-2-2-2-2-2-2-2--0---0----0----0----0--------0--------
A-----------3-------3---------------------------------0-------0----
E--3---3--------3-------3----3---3----3----3-----------------------


E-----------------------------------------------------------------
B----0---0-0--0---0-0---1---1---1---1----0---0---0-0--0----1---1--
G----0---0-0--0---0-0---0---0---0---0----0---0---0-0--0----0---0--
D-----0-0------0-0-----2-2-2-2-2-2-2-2--0-0-0-0-0----0-0--2-2-2-2-
A---2--------2--------3-------3--------------------------0--------
E--3---3----3---3---------3-------3----3---3---3----3--------0----


E----2---2-----------------------------------------|
B----1---1----0----0--1---1-1--0-0--0-0----1--1----|
G---2-2-2-2---0---2---2---2-2--2-2--2-2--2-2--2----|
D--0---------0-0-0---0-0-0----0----0----0----0-0---|
A------0-------------------------------------------|
E-----------3---3---3---3----3----3----3----3------|

            
Submit corrections


        Tell Lorrie I Love Her lessons Hard to play? Try these video lessons and learn fast Tell Lorrie I Love Her lessons
        
↑ Back to top | Tablatures and chords for acoustic guitar and electric guitar, ukulele, drums are parodies/interpretations of the original songs. You may use it for private study, scholarship, research or language learning purposes only