» » »

Keith Whitley - Birmingham Turnaround Tabs

Artists:  A B C D E F G H I J K L M N O P Q R S T U V W X Y Z # 

Birmingham Turnaround Tabs

(ver. 1) Click to play this song!
Keith Whitley
 Rating:
4/5 (4 votes)

 Birmingham Turnaround lessons Tabs too difficult? Try these video lessons and learn fast
 
                Keith Whitley:Birmingham Turnaround (Solo)


Going out by request. Enjoy ! ~ Cal


E---------------------------------------------------15-14p13-
B-----------------17-13--------------------------------------
G-0----12-16b(17)-------12-------14p12-14-7h9-7h9-7----------
D---14---------------------12h14-----------------------------
A------------------------------------------------------------
E------------------------------------------------------------


E-11-12---------------------------------8---8-------------
B-------13-13----10-8------8------------8---6-4/5-6-8-5-6-
G-------------12-10-7b(9)-(9)r7-5---5-5---5---------------
D---------------------------------7-----------------------
A---------------------------------------------------------
E---------------------------------------------------------
            
Submit corrections


        Birmingham Turnaround lessons Hard to play? Try these video lessons and learn fast Birmingham Turnaround lessons
        
↑ Back to top | Tablatures and chords for acoustic guitar and electric guitar, ukulele, drums are parodies/interpretations of the original songs. You may use it for private study, scholarship, research or language learning purposes only