» » »

Kehlani - The Way Tabs

Artists:  A B C D E F G H I J K L M N O P Q R S T U V W X Y Z # 

The Way Tabs

(ver. 1) Click to play this song!
Kehlani
 Rating:
2.5/5 (24 votes)

 The Way  lessons Tabs too difficult? Try these video lessons and learn fast
 
                Tuning:standard

Intro

e|-6---6------6-----------------9----x-----8-------------------------------------|
B|-8---6-h8p6-6-----------------9----x-----8------------------------------------|
G|-7---7------7---------8h9-----10---x-----8----------------------------------------|
D|-8---8------8------8h9--------11---x-----10----------------------------------------|
A|-6---6------6-----------------11---x-----10-------------------------------------|
E|-6---6------6-----------------9----x-----8-------------------------------------|

Verse/Bridge/Hook Chorus:

e|-6--x--6--------9----x-----8-------------------------------------|
B|-8--x--6--------9----x-----8------------------------------------|
G|-7--x--7--------10---x-----8----------------------------------------|
D|-8--x--8--------11---x-----10----------------------------------------|
A|-6--x--6--------11---x-----10-------------------------------------|
E|-6--x--6--------9----x-----8-------------------------------------|            
Submit corrections


        The Way  lessons Hard to play? Try these video lessons and learn fast The Way  lessons
        
↑ Back to top | Tablatures and chords for acoustic guitar and electric guitar, ukulele, drums are parodies/interpretations of the original songs. You may use it for private study, scholarship, research or language learning purposes only