» » »

Katie Melua - Shy Boy Tabs

Artists:  A B C D E F G H I J K L M N O P Q R S T U V W X Y Z # 

Shy Boy Tabs

(ver. 1) Click to play this song!
Katie Melua
 Rating:
4/5 (4 votes)


 Shy Boy lessons Tabs too difficult? Try these video lessons and learn fast
 
                "Shy Boy" guitar solo.

Tuning: Standard tuning

Here's the guitar solo in Katie Melua's Shy Boy. It sounds pretty good, so I decided to 
it. The solo appears at 1:57 in the song (the whole track is 3:28 min). It's very 
(if it was not I wouldn't post it). Listen to the song and figure out the rythm.

/: slide
~: let ring a bit
b: bend

Time: 1:57 --> 2:21

|--11-11-11-11/10-8----8----8-------------------------------|
|-------------------10---10---10--------8-------------------|
|-----------------------------------7/9---------------------|
|-----------------------------------------------------------|
|-----------------------------------------------------------|
|-----------------------------------------------------------|

|-----------------------------------------------------------|
|--8-6--6-4-6-8-6/4--------------5--------------------------|
|-------------------5/3-7~------5---7~---5-7-5-9b9b-7-5-----|
|--------------------------5-7---------5----------------7---|
|-----------------------------------------------------------|
|-----------------------------------------------------------|

|-----------------------------------------------------------|
|-----------------------------------------------------------|
|--5-----5-3-----3-55-35--5-5--8/7-8/7-8/7-8-5--------------|
|----3-5-----1-3-------------------------------7-5----------|
|--------------------------------------------------7-5/3----|
|-----------------------------------------------------------|
            
Submit corrections



        Shy Boy lessons Hard to play? Try these video lessons and learn fast Shy Boy lessons
        
↑ Back to top | Tablatures and chords for acoustic guitar and electric guitar, ukulele, drums are parodies/interpretations of the original songs. You may use it for private study, scholarship, research or language learning purposes only