Home » K » Kate Nash »

Kate Nash - Are You There Sweetheart Bass

Artists:  A B C D E F G H I J K L M N O P Q R S T U V W X Y Z # 

Are You There Sweetheart Bass

(ver. 1) Click to play this song!
Kate Nash
[Intro] 

00.00 - 00.29 
G|---------------------------------------------------------------------------|
D|---------------------------------------------------------------------------| 
A|---------------------------------------------------------------------------| 
E|-7-----7---7-----3----5--------7-----7---7-----3----5----------------------| 
                                                                                x2
G|---------------------------------------------------------------------------| 
D|---------------------------------------------------------------------------| 
A|---------------------------------------------------------------------------| 
E|-8-----7---7-----3----5--------8-----7---7-----3----5----------------------|


[Verse] 

00.28 - 00.59
G|---------------------------------------------------------------------------|
D|---------------------------------------------------------------------------| 
A|---------------------------------------------------------------------------| 
E|-7-----7---7-----3----5--------7-----7---7-----3----5----------------------| 
                                                                                x2
G|---------------------------------------------------------------------------| 
D|---------------------------------------------------------------------------| 
A|---------------------------------------------------------------------------| 
E|-8-----7---7-----3----5--------8-----7---7-----3----5----------------------|


[Chorus] 

00.59 - 01.28
G|---------------------------------------------------------------------------|
D|---------------------------------------------------------------------------| 
A|---------------------------------------------------------------------------| 
E|-7-----7---7-----3----5--------7-----7---7-----3----5----------------------| 
                                                                                x2
G|---------------------------------------------------------------------------| 
D|---------------------------------------------------------------------------| 
A|---------------------------------------------------------------------------| 
E|-8-----7---7-----3----5--------8-----7---7-----3----5----------------------|


[Verse] 

01.28 - 01.57
G|---------------------------------------------------------------------------|
D|---------------------------------------------------------------------------| 
A|---------------------------------------------------------------------------| 
E|-7-----7---7-----3----5--------7-----7---7-----3----5----------------------| 
                                                                                x2
G|---------------------------------------------------------------------------| 
D|---------------------------------------------------------------------------| 
A|---------------------------------------------------------------------------| 
E|-8-----7---7-----3----5--------8-----7---7-----3----5----------------------|


[Chorus] 

01.57 - 02.27
G|---------------------------------------------------------------------------|
D|---------------------------------------------------------------------------| 
A|---------------------------------------------------------------------------| 
E|-7-----7---7-----3----5--------7-----7---7-----3----5----------------------| 
                                                                                x2
G|---------------------------------------------------------------------------| 
D|---------------------------------------------------------------------------| 
A|---------------------------------------------------------------------------| 
E|-8-----7---7-----3----5--------8-----7---7-----3----5----------------------|


[Bridge] 

02.27 - 03.06
G|---------------------------------------------------------------------------|
D|---------------------------------------------------------------------------|
A|---------------------------------------------------------------------------|
E|-7---------------5----------------3---------------1------------------------|  x4


[Verse]

03.06 - 03.35
G|---------------------------------------------------------------------------|
D|---------------------------------------------------------------------------| 
A|---------------------------------------------------------------------------| 
E|-7-----7---7-----3----5--------7-----7---7-----3----5----------------------| 
                                                                                x2
G|---------------------------------------------------------------------------| 
D|---------------------------------------------------------------------------| 
A|---------------------------------------------------------------------------| 
E|-8-----7---7-----3----5--------8-----7---7-----3----5----------------------|


[Chorus] 

03.35 - 04.05
G|---------------------------------------------------------------------------|
D|---------------------------------------------------------------------------| 
A|---------------------------------------------------------------------------| 
E|-7-----7---7-----3----5--------7-----7---7-----3----5----------------------| 
                                                                                x2
G|---------------------------------------------------------------------------| 
D|---------------------------------------------------------------------------| 
A|---------------------------------------------------------------------------| 
E|-8-----7---7-----3----5--------8-----7---7-----3----5----------------------|


[Outro] 

04.05 - End.
G|---------------------------------------------------------------------------|
D|---------------------------------------------------------------------------| 
A|---------------------------------------------------------------------------| 
E|-7-----7---7-----3----5--------7-----7---7-----3----5----------------------| 
                                                                               
G|---------------------------------------------------------------------------| 
D|---------------------------------------------------------------------------| 
A|---------------------------------------------------------------------------| 
E|-8-----7---7-----3----5--------8-----7---7-----3----5----------------------|

G|---------------------|
D|---------------------|
A|---------------------|
E|-7~------------------|             
Submit corrections

↑ Back to top | Tablatures and chords for acoustic guitar and electric guitar, ukulele, drums are parodies/interpretations of the original songs. You may use it for private study, scholarship, research or language learning purposes only