Home » K » Kate Miller-heidke »

Kate Miller-heidke - Words Tabs

Artists:  A B C D E F G H I J K L M N O P Q R S T U V W X Y Z # 

Words Tabs

(ver. 1) Click to play this song!
Kate Miller-heidke
 Intro / Riff 1 (mechanical keyboard)
e|----------------------------------------------------------------|
B|-------0------------0-1-0----------------0----------6--5--4--5--|
G|--3b-----3-0---0--3-------3-0---0---3b-----3-0---0--------------|
D|--2----------2----------------2-----2----------2----------------|
A|--2---------------------------------2---------------------------|
E|----------------------------------------------------------------|
 
 Intro / Riff 1 (guitar)
   Em                                           B   D#m(b6)Em
e|-0---0-x-0-0----0---0-x-0-0----0---0-x-0-0----7----6----7--|
B|-0---0-x-0-0----0---0-x-0-0----0---0-x-0-0----7----7----8--|
G|-0---0-x-0-0----0---0-x-0-0----0---0-x-0-0----8----8----9--|
D|-2---2-x-2-2----2---2-x-2-2----2---2-x-2-2----9----9----9--|
A|-2---2-x-2-2----2---2-x-2-2----2---2-x-2-2----9----6----7--|
E|-0---0-x-0-0----0---0-x-0-0----0---0-x-0-0----7------------|
 
 Verse
   Em
e|-0---0-x-0-0----0---0-x-0-0----0---0-x-0-0----0---0-x-0-0---|
B|-0---0-x-0-0----0---0-x-0-0----0---0-x-0-0----0---0-x-0-0---|
G|-0---0-x-0-0----0---0-x-0-0----0---0-x-0-0----0---0-x-0-0---|
D|-2---2-x-2-2----2---2-x-2-2----2---2-x-2-2----2---2-x-2-2---|
A|-2---2-x-2-2----2---2-x-2-2----2---2-x-2-2----2---2-x-2-2---|
E|-0---0-x-0-0----0---0-x-0-0----0---0-x-0-0----0---0-x-0-0---|
 
  B11                            Em
e|-0---0-x-0-0----0---0-x-0-0----0---0-x-0-0----0---0-x-0-0---|
B|-0---0-x-0-0----0---0-x-0-0----0---0-x-0-0----0---0-x-0-0---|
G|-2---2-x-2-2----2---2-x-2-2----0---0-x-0-0----0---0-x-0-0---|
D|-1---1-x-1-1----1---1-x-1-1----2---2-x-2-2----2---2-x-2-2---|
A|-2---2-x-2-2----2---2-x-2-2----2---2-x-2-2----2---2-x-2-2---|
E|-0---0-x-0-0----0---0-x-0-0----0---0-x-0-0----0---0-x-0-0---|
 
 Pre-Chorus
   Am             Em            B11             Em
e|-0---0-x-0-0----0---0-x-0-0----0---0-x-0-0----0---0-x-0-0---|
B|-1---1-x-1-1----0---0-x-0-0----0---0-x-0-0----0---0-x-0-0---|
G|-2---2-x-2-2----0---0-x-0-0----2---2-x-2-2----0---0-x-0-0---|
D|-2---2-x-2-2----2---2-x-2-2----1---1-x-1-1----2---2-x-2-0---|
A|-0---0-x-0-0----2---2-x-2-2----2---2-x-2-2----2---2-x-2-0---|
E|----------------0---0-x-0-0-------------------0---0-x-0-0---|
 
   Am             Em             B     D#m(b6)  Bmaj7   Em
e|-0---0-x-0-0----0---0-x-0-0----7------7------11------7------|
B|-1---1-x-1-1----0---0-x-0-0----7------6------11------8------|
G|-2---2-x-2-2----0---0-x-0-0----8------8------11------9------|
D|-2---2-x-2-2----2---2-x-2-2----9------9------9-------9------|
A|-0---0-x-0-0----2---2-x-2-2----9------6------9-------7------|
E|----------------0---0-x-0-0----7-------------7--------------|
 
  Chorus
e|--------------------------------------------------------|
B|--------------------------------------------------------|
G|--------9~~-9---------9~~-9---------9~~-9---9--8--7--6--|
D|--------x---x---------x---x---------x---x---x--x--x--x--|
A|--------7~~-7---------7~~-7---------7~~-7---7--6--5--4--|
E|--0--0----------0--0----------0--0----------------------|
 
e|--------------------------------------------------------------|
B|--------------------------------------------------------------|
G|--5--5--3~~-3---5--5--3~~-3-----4--4--x--x--4--5--5--x--x--5--|
D|--x--x--x---x---x--x--x---x-----4--4--x--x--4--5--5--x--x--5--|
A|--3--3-(3)-(3)--3--3-(3)-(3)----2--2--x--x--2--3--3--x--x--3--|
E|--x--x----------x--x------------------------------------------|
 
 Bridge / Riff 2
e|--------------------------------------------------------|
B|--------------------------------------------------------|
G|----4--5~~-4-----4--5~~-4-----4--5~~--------------------|
D|----4--5~~-4-----4--5~~-4-----4--5~~--5--6--5--4--3--2--|
A|----2--3~~-2-----2--3^~-2-----2--3~~--5--6--5--4--3--2--|
E|-(0)----------0------------0----------3--4--3--2--1--0--|
            
Submit corrections

↑ Back to top | Tablatures and chords for acoustic guitar and electric guitar, ukulele, drums are parodies/interpretations of the original songs. You may use it for private study, scholarship, research or language learning purposes only