Home » K » Kate Bush »

Kate Bush - Wuthering Heights Tabs

Artists:  A B C D E F G H I J K L M N O P Q R S T U V W X Y Z # 

Wuthering Heights Tabs

(ver. 1) Click to play this song!
Kate Bush
 Rating:
4.3/5 (25 votes)
                e|--------------------------------------------------------------------------------|
B|--14-------14----------16/18-16p14-16/18-16p14------16/18---16p14----------14---|
G|------------------------------------------------------------------13-13h15------|
D|--------------------------------------------------------------------------------|
A|--------------------------------------------------------------------------------|
E|--------------------------------------------------------------------------------|

e|-16/17-16p14-13h14---------------------------------------|
B|------------------16p14--16/18-16p14-9h11--------9h11----|
G|---------------------------------------------------------|
D|---------------------------------------------------------|
A|---------------------------------------------------------|
E|---------------------------------------------------------|

e|-----------------------------------------|
B|--9p7-6h7-------------------9-9h11-------|
G|----------8p6-8/10-8p6-8/10--------------|
D|-----------------------------------------|
A|-----------------------------------------|
E|-----------------------------------------|

e|------------------------------------------|
B|-14p11-------16p14-----------14-----------|
G|-------13p11-------15p13--------13-13h15--|
D|------------------------------------------|
A|------------------------------------------|
E|------------------------------------------|

e|----------------------------------------------------------------------------|
B|--14-----------16/18-18\16p14-16/18-18\16p14------16/18---16p14----------14-|
G|----------------------------------------------------------------13-13h15----|
D|----------------------------------------------------------------------------|
A|----------------------------------------------------------------------------|
E|----------------------------------------------------------------------------|

e|-----------------------------------------|
B|-12/14--9h11-6h7p6-----------------------|
G|-------------------8-6-------------------|
D|-----------------------------------------|
A|-----------------------------------------|
E|-----------------------------------------|

e|---------------------------------------------|
B|-------7-7-6h7-9-7-6h7p6-----6------------7--|
G|-----6-------------------8p6---8p6------6----|
D|---8--------------------------------6h8------|
A|---------------------------------------------|
E|---------------------------------------------|

e|--------9----9---------9-----------------|
B|---9/11---11---11-9-------9-9h11---------|
G|-----------------------------------------|
D|-----------------------------------------|
A|-----------------------------------------|
E|-----------------------------------------|

e|------16/18----16/18-16/18\16-14-13h14p13---------------|
B|---14-------14----------------------------16p14--9/11---|
G|--------------------------------------------------------|
D|--------------------------------------------------------|
A|--------------------------------------------------------|
E|--------------------------------------------------------|            
Submit corrections

↑ Back to top | Tablatures and chords for acoustic guitar and electric guitar, ukulele, drums are parodies/interpretations of the original songs. You may use it for private study, scholarship, research or language learning purposes only