Home » K » Kate Bush »

Kate Bush - Army Dreamers Tabs

Artists:  A B C D E F G H I J K L M N O P Q R S T U V W X Y Z # 

Army Dreamers Tabs

(ver. 1) Click to play this song!
Kate Bush
verse and intro riff thing.

e|-17--14--17-9~-------10--9--10---------------------------------------------|
B|---------------------------------7-----------------------------------------|
G|---------------------------------------------------------------------------|
D|---------------------------------------------------------------------------|
A|---------------------------------------------------------------------------|
E|---------------------------------------------------------------------------|

e|-17--14--17-9~-------------------------------------------------------------|
B|----------------------7--8--12--14-----------------------------------------|
G|---------------------------------------------------------------------------|
D|---------------------------------------------------------------------------|
A|---------------------------------------------------------------------------|
E|---------------------------------------------------------------------------|
            
Submit corrections

↑ Back to top | Tablatures and chords for acoustic guitar and electric guitar, ukulele, drums are parodies/interpretations of the original songs. You may use it for private study, scholarship, research or language learning purposes only