» » »

Katatonia - Tonights Music Tabs

Artists:  A B C D E F G H I J K L M N O P Q R S T U V W X Y Z # 

Tonights Music Tabs

(ver. 1) Click to play this song!
Katatonia
 Rating:
3.6/5 (22 votes)

 Tonights Music lessons Tabs too difficult? Try these video lessons and learn fast
 
                INTRO AND CHORUS
eb|-------------------------------------------------------------------------------|
Bb|-------------------------------------------------------------------------------|
Gb|-------9(14)-7-5-7-7-9-5-5-----------7-9-5(8)-4----------5---------------------|
Db|-7-7-7---------------------7(8)--5-5------------7-9(8)-7---7-10-----5/7-----7--|
Ab|----------------------------------------------------------------5-3-------5----|
Eb|------------------------------------------------------------------------0------|

VERSE (this is my best guess)
eb|-----------------------------------|
Bb|-----------------------------------|
Gb|------9-------9--------9--------9--|
Db|---10------10-------10-------10----|
Ab|-8-------8-------12-------10-------|
Eb|-----------------------------------|

Outro
eb|----------------------------|
Bb|-10-8-----------------------|
Gb|------9-----9---9-7----7----|
Db|--------------------10---9--|
Ab|----------------------------|
Eb|----------------------------|            
Submit corrections


        Tonights Music lessons Hard to play? Try these video lessons and learn fast Tonights Music lessons
        
↑ Back to top | Tablatures and chords for acoustic guitar and electric guitar, ukulele, drums are parodies/interpretations of the original songs. You may use it for private study, scholarship, research or language learning purposes only