» » »

Katatonia - The Northern Silence Tabs

Artists:  A B C D E F G H I J K L M N O P Q R S T U V W X Y Z # 

The Northern Silence Tabs

(ver. 1) Click to play this song!
Katatonia
 Rating:
4.1/5 (31 vote)

 The Northern Silence lessons Tabs too difficult? Try these video lessons and learn fast
 
                Intro                       Verse

e|---------------------|--|-----------------------------------------------------------|--|
B|---------------------|--|-----------------------------------------------------------|--|
G|---------------------|--|-----------------------------------------------------------|--|
D|--5-----5-----2----2-|2x|--5----5-3-2----7----7-5-------2--2h3-3-2-----2--2h3-3-2---|3x|
A|--3-----7-----0----0-|--|--3--3----------5--5-----8-----0----------3---0----------3-|--|
E|---------------------|--|-----------------------------------------------------------|--|
                                "             "       
e|-------------------------------------------|
B|-------------------------------------------|
G|-------------------------------------------|
D|--5----5-3-2----7----7-5--------2----------|  " - palm mute
A|--3--3----------5--5-----8------0--5--2--3-|
E|-----------------------------------3--0--1-|
       "             "       
 Fast Part
  
e|-------------------------------------------------------------|--|
B|-------------------------------------------------------------|--|
G|-------------------------------------------------------------|--|
D|--555555-444444-777777-999999---555555-444444----------------|2x|
A|----------------------------------------------555555-333333--|--|
E|-------------------------------------------------------------|--|

e|-------------------------------------------------------------|--|
B|-------------------------------------------------------------|--|
G|--555555-444444-777777-999999---555555-444444----------------|--|
D|----------------------------------------------555555-777777--|2x|
A|-------------------------------------------------------------|--|
E|-------------------------------------------------------------|--|

  Bridge

e|-------------------------------------------------|--|
B|-------------------------------------------------|--|
G|-------------------------------------------------|--|
D|-----5p4--------5p4--------5p4-------------------|4x|
A|--2-----5----5-----5----7-----5---2-2-(zaglushka)|--|
E|--0----------3----------5---------0-0------------|--|

e|-------------------------------------------------|--|
B|-------------------------------------------------|--|
G|-----5h4--------5p4--------5p4-------------------|--|
D|--2-----5----5-----5----7-----5---2-2-(zaglushka)|2x|
A|--0----------3----------5---------0-0------------|--|
E|-------------------------------------------------|--|

e|-------------------------------------------------|--|
B|-------------------------------------------------|--|
G|-------------------------------------------------|--|
D|-----5p4--------5p4--------5p4-------------------|2x|
A|--2-----5----5-----5----7-----5---2-2-(zaglushka)|--|
E|--0----------3----------5---------0-0------------|--|

  Verse

e|---------------------|--|-----------------------------------------------------------|--|
B|---------------------|--|-----------------------------------------------------------|--|
G|---------------------|--|-----------------------------------------------------------|--|
D|--5-----5-----2----2-|2x|--5----5-3-2----7----7-5-------2--2h3-3-2-----2--2h3-3-2---|3x|
A|--3-----7-----0----0-|--|--3--3----------5--5-----8-----0----------3---0----------3-|--|
E|---------------------|--|-----------------------------------------------------------|--|
                                .
e|-------------------------------------------|
B|-------------------------------------------|
G|-------------------------------------------|
D|--5----5-3-2----7----7-5--------2----------|
A|--3--3----------5--5-----8------0--5--2--3-|
E|-----------------------------------3--0--1-|

 Outro

e|---------------------------------------------------------------------------|--|
B|---------------------------------------------------------------------------|--|
G|------------------------------------2-2-2-2-2-2-2-2------------------------|--|
D|--2-2-2-2-2-2-2-2--5-5-5-5-5-5-5-5--x-x-x-x-x-x-x-x--5-5-5-5--5-3-2--------|2x|
A|--0-0-0-0-0-0-0-0--2-2-2-2-2-2-2-2--3-3-3-3-3-3-3-3--2-2-2-2--------5------|--|
E|---------------------------------------------------------------------------|--|

e|---------------------------------------------------------------------------|--|
B|---------------------------------------------------------------------------|--|
G|--------------------------------------------2-2-2-2------------------------|--|
D|--2-2-2---2-2-2-2--5-5-5---5-5-5-5--x-x-x---x-x-x-x--5-5-5----5-3-2--------|2x|
A|--0-0-0---0-0-0-0--2-2-2---2-2-2-2--3-3-3---3-3-3-3--2-2-2-----==---5------|--|
E|---------------------------------------------------------------------------|--|

e|---------------------------------------------------------------------------|--|
B|---------------------------------------------------------------------------|--|
G|------------------------------------2-2-2-2-2-2-2-2------------------------|--|
D|--2-2-2-2-2-2-2-2--5-5-5-5-5-5-5-5--x-x-x-x-x-x-x-x--5-5-5-5--5-3-2--------|2x|
A|--0-0-0-0-0-0-0-0--2-2-2-2-2-2-2-2--3-3-3-3-3-3-3-3--2-2-2-2--------5------|--|
E|---------------------------------------------------------------------------|--|

e|-----|
B|-----|
G|-----|
D|--2--| END
A|--0--|
E|-----|            
Submit corrections


        The Northern Silence lessons Hard to play? Try these video lessons and learn fast The Northern Silence lessons
        
↑ Back to top | Tablatures and chords for acoustic guitar and electric guitar, ukulele, drums are parodies/interpretations of the original songs. You may use it for private study, scholarship, research or language learning purposes only