» » »

Katatonia - Takeover Tabs

Artists:  A B C D E F G H I J K L M N O P Q R S T U V W X Y Z # 

Takeover Tabs

(ver. 1) Click to play this song!
Katatonia
 Rating:
4.3/5 (28 votes)

 Takeover  lessons Tabs too difficult? Try these video lessons and learn fast
 
                

[Clean Riff 1]

    11/8 time                            
C |-------------0-----------------0-----------------0-----------------|
G |----------4-----4-----------4-----4-----------4-----4--------------|
D#|-------6-----------6-----6-----------------6-----------6-----------|  play 4x
A#|----7-----------------7-----------------7-----------------7-----7--|
F |-0-----------------------------------0-----------------------0-----|
A#|-------------------------------------------------------------------|



[Clean Riff Part 2]

    4/4 time, at 0:17
C |----------------------------0-----------|
G |------------0------------0--------0-----|
D#|---------6------------6--------6-----6--|
A#|------4------------6--------------------|
F |----------------------------------------|
A#|-4--------------6-----------------------|

    6/4 time
C |------------------------------------0----------------------|
G |-------------0----------------0--------0-----------0-------|
D#|----6-----6-----6----------6-----6--------------6-----6----| play similarly 4x
A#|-4-----4----------------4--------------------4-------------|
F |-----------------------------------------------------------|
C |-----------------------------------------------------------|

    4/4 time, at 0:38
C |----------------------------0-----------|
G |------------0------------0-----0-----0--|
D#|---------6------------6-----------6-----|
A#|------4------------6--------------------|
F |----------------------------------------|
A#|-4--------------6-----------------------|



[Clean Riff Part 3]

    11/8 time
C |-------------------------------------------------------|
G |-------------0-----------------0--------------0--------|
D#|----------4-----4-----------4--------------4-----------| play 4x
A#|-3-----3-----------------3--------------3-----------3--|
F |----5-----------------5--------------5-----------5-----|
A#|-------------------------------------------------------|


Distortion comes in - both guitars hold chord
C |------------------------------------------|
G |------------------------------------------|
D#|------------------------------------------|
A#|------------------------------------------|
F |---5--------------------------------------|
A#|---0--------------------------------------|



[Heavy Riff 1]
    Guitar 2 plays this (4/4 time)
C |------------------------------------------|
G |------------------------------------------|
D#|------------------------------------------|
A#|----------------10-------------------10---|
F |------------------------------------------|
A#|-0------0h10h12----12\---0---0h10h12------|

C |--------------------------------------|-----------------------------------------|
G |--------------------------------------|-----------------------------------------|
D#|--------------------------------------|-------------------------------------0---|
A#|----------------10-----------10p7-----|----------------10-----------0h10h12-----|
F |-12\------------------------------8p7-|-5---------------------------------------|
A#|------0-0h10h12----12\---0------------|-0------0h10h12----12\---0---------------|

C |-------------------------------------------------------------|
G |-------------------------------------------------------------|
D#|-14---------14---------12---------12--------10---------------| play 2x
A#|-----10h12------10h12------10h12------10h12---10h12-14-10h12-|
F |-------------------------------------------------------------|
A#|-------------------------------------------------------------|



[Heavy Verse Mod]

    (1:25)
C |------------------------------------------|
G |------------------------------------------|
D#|------------------------------------------|
A#|----------------10-------------------10---|
F |------------------------------------------|
A#|-0------0h10h12----12\---0---0h10h12------|

                                           2 extra beats
C |--------------------------------------|------------------------|
G |--------------------------------------|------------------------|
D#|--------------------------------------|------------------------|
A#|----------------10-----------10p7-----|------------------------|
F |-12\------------------------------8p7-|--------5---------------|
A#|------0-0h10h12----12\---0------------|-0--3h5-----0--3h5--3---|

    4/4 time again
C |-----------------------------------------|
G |-----------------------------------------|
D#|-------------------------------------0---|
A#|----------------10-----------0h10h12-----|
F |-5---------------------------------------|
A#|-0------0h10h12----12\---0---------------|


C |-------------------------------------------------------------|
G |-------------------------------------------------------------|
D#|-14---------14---------12---------12--------10---------------|
A#|-----10h12------10h12------10h12------10h12---10h12-14-10h12-|
F |-------------------------------------------------------------|
A#|-------------------------------------------------------------|


   Continue Heavy Verse
C |------------------------------------------|
G |------------------------------------------|
D#|------------------------------------------|
A#|----------------10-------------------10---|
F |------------------------------------------|
A#|-0------0h10h12----12\---0---0h10h12------|

C |--------------------------------------|-----------------------------------------|
G |--------------------------------------|-----------------------------------------|
D#|--------------------------------------|-------------------------------------0---|
A#|----------------10-----------10p7-----|----------------10-----------0h10h12-----|
F |-12\------------------------------8p7-|-5---------------------------------------|
A#|------0-0h10h12----12\---0------------|-0------0h10h12----12\---0---------------|

C |-------------------------------------------------------------|
G |-------------------------------------------------------------|
D#|-14---------14---------12---------12--------10---------------|
A#|-----10h12------10h12------10h12------10h12---10h12-14-10h12-|
F |-------------------------------------------------------------|
A#|-------------------------------------------------------------|

C |------------------------------------------|
G |------------------------------------------|
D#|------------------------------------------|
A#|----------------10-------------------10---|
F |------------------------------------------|
A#|-0------0h10h12----12\---0---0h10h12------|

                                           3 extra beats
C |--------------------------------------|---------------------------------|
G |--------------------------------------|---------------------------------|
D#|--------------------------------------|---------------------------------|
A#|----------------10-----------10p7-----|---------------------------------|
F |-12\------------------------------8p7-|--------5----------------------5-|
A#|------0-0h10h12----12\---0------------|-0--3h5-----0--3h5--3---0--3h5---|

    4/4 time again
C |-----------------------------------------|
G |-----------------------------------------|
D#|-------------------------------------0---|
A#|----------------10-----------0h10h12-----|
F |-5---------------------------------------|
A#|-0------0h10h12----12\---0---------------|


C |-------------------------------------------------------------|
G |-------------------------------------------------------------|
D#|-14---------14---------12---------12--------10---------------|
A#|-----10h12------10h12------10h12------10h12---10h12-14-10h12-|
F |-------------------------------------------------------------|
A#|-------------------------------------------------------------|



[Bridge]

C |----------------------------------------|----------8--6--------------------5--3-----------|
G |-------9--10-10-10-10-10\----------5----|-------6--------------7--------0--------0--------|
D#|-6--7--7--7--7--7--7--8\--------7-------|-7--9-----------7--7--------4--------------0--0--|
A#|-0--0--0--0--0--0--0--0------7----------|-------------------------5-----------------------|
F |----------------------------------------|-------------------------------------------------|
A#|----------------------------------------|-------------------------------------------------|

C |----------------------------------------|-------10--12--13----------------8--10--11-------|
G |-------9--10-10-10-10-10-10-10-10-------|-------------------------------------------------|
D#|-6--7--7--7--7--7--7--8--7--7--7--------|-7--7-----------------7--7---7h8-----------8--8--|
A#|-0--0--0--0--0--0--0--0--0--0--0--------|-0--0--------------0--0--0-----------------------|
F |----------------------------------------|-------------------------------------------------|
A#|----------------------------------------|-------------------------------------------------|



[Theme 2]

C |----------------------------------------|-----------------------------------|
G |----------------------------------------|-----------------------------------|
D#|----------------------------------------|-----------------------------------|
A#|----------------------------------------|-----------------------------------|
F |----------------------------------------|-----0----0------------10----10----|
A#|-10-12---12---10-12-13-12---12---10-12--|-10--0----0------------10----10----|

C |----------------------------------------|-----------------------------------------|
G |----------------------------------------|-----------------------------------------|
D#|----------------------------------------|-----------------------------------------|
A#|----------------------------------------|-----------------------------------------|
F |-----------------------9---9------------|-10----12----13---12h13p12-10--8--5------|
A#|-10-12---12---12-12-13------------------|-----------------------------------------|

C |----------------------------------------|-----------------------------------|
G |----------------------------------------|-----------------------------------|
D#|----------------------------------------|-----------------------------------|
A#|----------------------------------------|-----------------------------------|
F |----------------------------------------|-----0----0------------10----10----|
A#|-10-12---12---10-12-13-12---12---10-12--|-10--0----0------------10----10----|

C |---------------------------------------|--------------------------3-----------------|
G |---------------------------------------|--------------------------6-----------------|
D#|---------------------------------------|--------------------------5-----------------|
A#|---------------------------------------|--------------------------3-----------------|
F |-8--7----7--------8----10----3----5----|-5----7----2----3---------3---------x\------|
A#|-8--7----7----8p7-8----10----3----5----|-5----7----2----3----0h2--3---------x\------|
                                                                     hold      scr*pe


[Chorus]

    (2:44)
C |-------------------------------------|--------------------------------------|
G |-------------------------------------|--------------------------------------|
D#|-12-----12--12-----12-----12--12-----|-15-----15--15----15--15----15--15----|
A#|-12-----12--12-----12-----12--12-----|-15-----15--15----15--15----15--15----|
F |-10-----10--10-----10-----10--10-----|-13-----13--13----13--13----13--13----|
A#|-------------------------------------|--------------------------------------|

C |-------------------------------------|----------------------------------|
G |-10----10-10-10----10-----10-10-10---|----------------------------------|
D#|-10----10-10-10----10-----10-10-12---|-9-----9-9-9-----9----10----12----|
A#|-12----12-12-12----12-----12-12-12---|----------------------------------|
F |-12----12-12-12----12-----12-12-12---|----------------------------------|
A#|-------------------------------------|----------------------------------|

C |-------------------------------------|-------------------------------------|
G |-------------------------------------|-------------------------------------|
D#|-12-----12--12-----12-----12--12-----|-------------------------------------|
A#|-12-----12--12-----12-----12--12-----|-11-------------10-------------------|
F |-10-----10--10-----10-----10--10-----|-11-------------10-------------------|
A#|-------------------------------------|-11-------------10-------------------|

C |------------------------------------|--------------------------------------|
G |------------------------------------|--------------------------------------|
D#|------------------------------------|--------------------------------------|
A#|------------0h7---0h8h12-----0h7----|------------0h7---0h8p7-----3p0-------|
F |------------------------------------|--------------------------------------|
A#|-0h5h7---0----------------0---------|-0h5h7---0---------------0------------|


repeat Chorus

C |---------------------------------------|
G |---------------------------------------|
D#|-2-------------------------------------|
A#|-2-------------------------------------|
F |-0-------------------------------------|
A#|---------------------------------------|


[Clean Riff 1 Returns]

    11/8 time    (3:21)                        
C |-------------0-----------------0-----------------0-----------------|
G |----------4-----4-----------4-----4-----------4-----4--------------|
D#|-------6-----------6-----6-----------------6-----------6-----------|  play 4x
A#|----7-----------------7-----------------7-----------------7-----7--|
F |-0-----------------------------------0-----------------------0-----|
A#|-------------------------------------------------------------------|

    4/4 time, at 3:37
C |----------------------------0-----------|
G |------------0------------0--------0-----|
D#|---------6------------6--------6-----6--|
A#|------4------------6--------------------|
F |----------------------------------------|
A#|-4--------------6-----------------------|

    6/4 time
C |------------------------------------0----------------------|
G |-------------0----------------0--------0-----------0-------|
D#|----6-----6-----6----------6-----6--------------6-----6----| play similarly 4x
A#|-4-----4----------------4--------------------4-------------|
F |-----------------------------------------------------------|
C |-----------------------------------------------------------|

    4/4 time, at 3:58
C |----------------------------0-----------|
G |------------0------------0-----0-----0--|
D#|---------6------------6-----------6-----|
A#|------4------------6--------------------|
F |----------------------------------------|
A#|-4--------------6-----------------------|


    11/8 time
C |-------------------------------------------------------|
G |-------------0-----------------0--------------0--------|
D#|----------4-----4-----------4--------------4-----------| play 4x
A#|-3-----3-----------------3--------------3-----------3--|
F |----5-----------------5--------------5-----------5-----|
A#|-------------------------------------------------------|

   Continue until piano solo

  

[Heavy Riff 1 Returns]

C |--------------------|------------------------------------------|
G |--------------------|------------------------------------------|
D#|--5--5--5--5--5--5--|------------------------------------------|
A#|--5--5--5--5--5--5--|----------------10-------------------10---|
F |--3--3--3--3--3--3--|------------------------------------------|
A#|--------------------|-0------0h10h12----12\---0---0h10h12------|

C |--------------------------------------|-----------------------------------------|
G |--------------------------------------|-----------------------------------------|
D#|--------------------------------------|-------------------------------------0---|
A#|----------------10-----------10p7-----|----------------10-----------0h10h12-----|
F |-12\------------------------------8p7-|-5---------------------------------------|
A#|------0-0h10h12----12\---0------------|-0------0h10h12----12\---0---------------|

C |-------------------------------------------------------------|
G |-------------------------------------------------------------|
D#|-14---------14---------12---------12--------10---------------| play 2x
A#|-----10h12------10h12------10h12------10h12---10h12-14-10h12-|
F |-------------------------------------------------------------|
A#|-------------------------------------------------------------|

C |------------------------------------------|
G |------------------------------------------|
D#|------------------------------------------|
A#|----------------10-------------------10---|
F |------------------------------------------|
A#|-0------0h10h12----12\---0---0h10h12------|

                                           2 extra beats
C |--------------------------------------|------------------------|
G |--------------------------------------|------------------------|
D#|--------------------------------------|------------------------|
A#|----------------10-----------10p7-----|------------------------|
F |-12\------------------------------8p7-|--------5---------------|
A#|------0-0h10h12----12\---0------------|-0--3h5-----0--3h5--3---|

    4/4 time again
C |-----------------------------------------|
G |-----------------------------------------|
D#|-------------------------------------0---|
A#|----------------10-----------0h10h12-----|
F |-5---------------------------------------|
A#|-0------0h10h12----12\---0---------------|


C |-------------------------------------------------------------|
G |-------------------------------------------------------------|
D#|-14---------14---------12---------12--------10---------------|
A#|-----10h12------10h12------10h12------10h12---10h12-14-10h12-|
F |-------------------------------------------------------------|
A#|-------------------------------------------------------------|


   Continue Heavy Verse
C |------------------------------------------|
G |------------------------------------------|
D#|------------------------------------------|
A#|----------------10-------------------10---|
F |------------------------------------------|
A#|-0------0h10h12----12\---0---0h10h12------|

C |--------------------------------------|-----------------------------------------|
G |--------------------------------------|-----------------------------------------|
D#|--------------------------------------|-------------------------------------0---|
A#|----------------10-----------10p7-----|----------------10-----------0h10h12-----|
F |-12\------------------------------8p7-|-5---------------------------------------|
A#|------0-0h10h12----12\---0------------|-0------0h10h12----12\---0---------------|

C |-------------------------------------------------------------|
G |-------------------------------------------------------------|
D#|-14---------14---------12---------12--------10---------------|
A#|-----10h12------10h12------10h12------10h12---10h12-14-10h12-|
F |-------------------------------------------------------------|
A#|-------------------------------------------------------------|

C |------------------------------------------|
G |------------------------------------------|
D#|------------------------------------------|
A#|----------------10-------------------10---|
F |------------------------------------------|
A#|-0------0h10h12----12\---0---0h10h12------|

                                           3 extra beats
C |--------------------------------------|---------------------------------|
G |--------------------------------------|---------------------------------|
D#|--------------------------------------|---------------------------------|
A#|----------------10-----------10p7-----|---------------------------------|
F |-12\------------------------------8p7-|--------5----------------------5-|
A#|------0-0h10h12----12\---0------------|-0--3h5-----0--3h5--3---0--3h5---|

    4/4 time again
C |-----------------------------------------|
G |-----------------------------------------|
D#|-------------------------------------0---|
A#|----------------10-----------0h10h12-----|
F |-5---------------------------------------|
A#|-0------0h10h12----12\---0---------------|


C |-------------------------------------------------------------|
G |-------------------------------------------------------------|
D#|-14---------14---------12---------12--------10---------------|
A#|-----10h12------10h12------10h12------10h12---10h12-14-10h12-|
F |-------------------------------------------------------------|
A#|-------------------------------------------------------------|



[Bridge 2]

C |----------------------------------------|----------8--6--------------------5--3-----------|
G |-------9--10-10-10-10-10\----------5----|-------6--------------7--------0--------0--------|
D#|-6--7--7--7--7--7--7--8\--------7-------|-7--9-----------7--7--------4--------------0--0--|
A#|-0--0--0--0--0--0--0--0------7----------|-------------------------5-----------------------|
F |----------------------------------------|-------------------------------------------------|
A#|----------------------------------------|-------------------------------------------------|

C |----------------------------------------|-------10--12--13----------------8--10--11-------|
G |-------9--10-10-10-10-10-10-10-10-------|-------------------------------------------------|
D#|-6--7--7--7--7--7--7--8--7--7--7--------|-7--7-----------------7--7---7h8-----------8--8--|
A#|-0--0--0--0--0--0--0--0--0--0--0--------|-0--0--------------0--0--0-----------------------|  
F |----------------------------------------|-------------------------------------------------|
A#|----------------------------------------|-------------------------------------------------|


    (5:21) keep repeating Bridge on one guitar, second plays the rhythm below
C |-------------------------------------|
G |-------------------------------------|
D#|-------------------------------------|
A#|-------7--------7--------7--------7--|  repeat with a offset rhythm until 5:43
F |-5--5-----5--5-----5--5-----5--5-----|
A#|-------------------------------------|



[Solo]
    
C |------------------------------|----------------------------|-----------------------------|
G |-13-----13-----13~----13~-----|------------------------10--|-/11-10~~~~------------------|
D#|-12b14--b14----12~----12~-----|-12-11~--11~------11h12-----|-------------12\11~~~--------|
A#|------------------------------|----------------------------|-------------------------10/-|
F |------------------------------|----------------------------|-----------------------------|
A#|------------------------------|----------------------------|-----------------------------|

C |------------------------------|----------------------------|---------------------------------------------|
G |------------------------------|----------------------------|-------------13----15/18-15h18p15------20-18-|
D#|---------------------------12\|-11~~~~~~~~~\---------------|-12h14--14~-----14---------------17-19-------|
A#|-12~~~------------10/12/13----|--------------10/12-----10~-|---------------------------------------------|
F |------------------------------|----------------------------|---------------------------------------------|
A#|------------------------------|----------------------------|---------------------------------------------|

C |-22--20b22r-18-17-----------------------13-|-15p13--------------------------|
G |-------------------------------------15----|-------15p13-15p13--------------|
D#|------------------17-15-14--14h15h17-------|-------------------15-14~~~~~~~-|
A#|-------------------------------------------|--------------------------------|
F |-------------------------------------------|--------------------------------|
A#|-------------------------------------------|--------------------------------|



[Solo Rhythm]
                                             solo starts in this bar
C |----------------------------------------|-----------------------------------|
G |----------------------------------------|-----------------------------------|
D#|----------------------------------------|-----------------------------------|
A#|----------------------------------------|-----------------------------------|
F |----------------------------------------|-----0----0------------10----10----|
A#|-10-12---12---0h10h12-13p12~--12--10-12-|-10--0----0------------10----10----|

C |----------------------------------------|-----------------------------------------|
G |----------------------------------------|-----------------------------------------|
D#|----------------------------------------|-----------------------------------------|
A#|----------------------------------------|-----------------------------------------|
F |-----------------------9---9------------|-10----12----13---12h13p12-10--8--5------|
A#|-10-12---12---12-12-13------------------|-----------------------------------------|

C |----------------------------------------|-----------------------------------|
G |----------------------------------------|-----------------------------------|
D#|----------------------------------------|-----------------------------------|
A#|----------------------------------------|-----------------------------------|
F |--3-5----5------0h3h5--8p5---5----3h5---|-----0----0------------10----10----|
A#|----------------------------------------|-10--0----0------------10----10----|

C |---------------------------------------|--------------------------3-----------------|
G |---------------------------------------|--------------------------6-----------------|
D#|---------------------------------------|--------------------------5-----------------|
A#|---------------------------------------|--------------------------3-----------------|
F |-8--7----7--------8----10----3----5----|-5----7----2----3---------3---------x\------|
A#|-8--7----7----8p7-8----10----3----5----|-5----7----2----3----0h2--3---------x\------|



[Outro Chorus]

    (2:44)
C |-------------------------------------|--------------------------------------|
G |-------------------------------------|--------------------------------------|
D#|-12-----12--12-----12-----12--12-----|-15-----15--15----15--15----15--15----|
A#|-12-----12--12-----12-----12--12-----|-15-----15--15----15--15----15--15----|
F |-10-----10--10-----10-----10--10-----|-13-----13--13----13--13----13--13----|
A#|-------------------------------------|--------------------------------------|

C |-------------------------------------|----------------------------------|
G |-10----10-10-10----10-----10-10-10---|----------------------------------|
D#|-10----10-10-10----10-----10-10-12---|-9-----9-9-9-----9----10----12----|
A#|-12----12-12-12----12-----12-12-12---|----------------------------------|
F |-12----12-12-12----12-----12-12-12---|----------------------------------|
A#|-------------------------------------|----------------------------------|

C |-------------------------------------|-------------------------------------|
G |-------------------------------------|-------------------------------------|
D#|-12-----12--12-----12-----12--12-----|-------------------------------------|
A#|-12-----12--12-----12-----12--12-----|-11-------------10-------------------|
F |-10-----10--10-----10-----10--10-----|-11-------------10-------------------|
A#|-------------------------------------|-11-------------10-------------------|

C |------------------------------------|--------------------------------------|
G |------------------------------------|--------------------------------------|
D#|------------------------------------|--------------------------------------|
A#|------------0h7---0h8h12-----0h7----|------------0h7---0h8p7-----3p0-------|
F |------------------------------------|--------------------------------------|
A#|-0h5h7---0----------------0---------|-0h5h7---0---------------0------------|            
Submit corrections


        Takeover  lessons Hard to play? Try these video lessons and learn fast Takeover  lessons
        
↑ Back to top | Tablatures and chords for acoustic guitar and electric guitar, ukulele, drums are parodies/interpretations of the original songs. You may use it for private study, scholarship, research or language learning purposes only