» » »

Katatonia - Second Tabs

Artists:  A B C D E F G H I J K L M N O P Q R S T U V W X Y Z # 

Second Tabs

(ver. 1) Click to play this song!
Katatonia
 Rating:
4/5 (4 votes)

 Second  lessons Tabs too difficult? Try these video lessons and learn fast
 
                Tuning: 2 steps down (C F A# D# G C)



Here's my try on a great song. It's probably not totally correct but anyways this is how I play it.


Intro:

|------------------------------5----------------------------------------------------------------|
|--------------5-----------5------7-------5-----------3-----------3-----------0-----------5-----|
|-------5---------7----------7--------4-------4---2-------2---2-------2---2-------2---4-------4-|
|---7------7--------7---7---------------5---5-------3---3-------3---3-------3---3-------5---5---|
|-----7------7--------7-------------------------------------------------------------------------|
|-5---------------------------------3-----------1-----------1-----------1-----------3-----------|



Verse 1:


              Sun has lost            mountains fell                      what took away our anchor
|-5-----5-----5-----5-----5-----5-----------------------------------------------------------------|
|---5-----5-----5-----5-----5-----5---5-----5-----3-----3-----3-----3-----0-----0-----5-----5-----|
|-----5-----5-----5-----5-----5-----5---4-----4-----2-----2-----2-----2-----2-----2-----4-----4---|
|-----------------------------------------5-----5-----3-----3-----3-----3-----3-----3-----5-----5-|
|-------------------------------------------------------------------------------------------------|
|-5-----------5-----------5-----------3-----------1-----------1-----------1-----------3-----------|

              Snow             in the old sky                             escape is a long
|-5-----5-----5-----5-----5-----5-----------------------------------------------------------------|
|---5-----5-----5-----5-----5-----5---5-----5-----3-----3-----3-----3-----0-----0-----5-----5-----|
|-----5-----5-----5-----5-----5-----5---4-----4-----2-----2-----2-----2-----2-----2-----4-----4---|
|-----------------------------------------5-----5-----3-----3-----3-----3-----3-----3-----5-----5-|
|-------------------------------------------------------------------------------------------------|
|-5-----------5-----------5-----------3-----------1-----------1-----------1-----------3-----------|
  
  dead end                                                    we need to rise higher
|-5-----5-----5-----5-----------------------------------------------------------------------------|
|---5-----5-----8-----8---6-----6-----5-----5-----3-----3-----1-----1-----0-----0-----5-----5-----|
|-----5-----7-----7-----7---5-----5-----5-----5-----2-----2-----2-----2-----2-----2-----4-----4---|
|-7-----------5---------------7-----7-----7-----7-0---0-----0-----3-----3-----3-----3-----5-----5-|
|-------------------------8-----------7-----------------------3-----------------------------------|
|-------------------------------------------------------------------------1-----------3-----------|



Verse 2:


              Temples burn            fires underneath                    what controls our anger
|-5-----5-----5-----5-----5-----5-----------------------------------------------------------------|
|---5-----5-----5-----5-----5-----5---5-----5-----3-----3-----3-----3-----0-----0-----5-----5-----|
|-----5-----5-----5-----5-----5-----5---4-----4-----2-----2-----2-----2-----2-----2-----4-----4---|
|-----------------------------------------5-----5-----3-----3-----3-----3-----3-----3-----5-----5-|
|-------------------------------------------------------------------------------------------------|
|-5-----------5-----------5-----------3-----------1-----------1-----------1-----------3-----------|

              Moon                    coming in               sun has lost did you know mountains
|-5-----5-----5-----5-----5-----5-----------------------------------------------------------------|
|---5-----5-----5-----5-----5-----5---5-----5-----3-----3-----3-----3-----0-----0-----5-----5-----|
|-----5-----5-----5-----5-----5-----5---4-----4-----2-----2-----2-----2-----2-----2-----4-----4---|
|-----------------------------------------5-----5-----3-----3-----3-----3-----3-----3-----5-----5-|
|-------------------------------------------------------------------------------------------------|
|-5-----------5-----------5-----------3-----------1-----------1-----------1-----------3-----------|
  
  fell                                                        we need to rise higher
|-5-----5-----5-----5-----------------------------------------------------------------------------|
|---5-----5-----8-----8---6-----6-----5-----5-----3-----3-----1-----1-----0-----0-----5-----5-----|
|-----5-----7-----7-----7---5-----5-----5-----5-----2-----2-----2-----2-----2-----2-----4-----4---|
|-7-----------5---------------7-----7-----7-----7-0---0-----0-----3-----3-----3-----3-----5-----5-|
|-------------------------8-----------7-----------------------3-----------------------------------|
|-------------------------------------------------------------------------1-----------3-----------|


Chorus:

Letting one second go on
To go over a lifetime
We were such good friends
Will you find me where I am now

This is played 4 times during above lyrics:
|----------------------------|
|----------------------------|
|----------------------------|
|----------------------------|
|--7----7-5-5---5----9-10-7--|
|--5----5-3-3---3----7-8--5--|



Then this:
|-5-----5-----5-----5-----5-----5-----------------------------------------------------------------|
|---5-----5-----5-----5-----5-----5---5-----5-----3-----3-----3-----3-----0-----0-----5-----5-----|
|-----5-----5-----5-----5-----5-----5---4-----4-----2-----2-----2-----2-----2-----2-----4-----4---|
|-----------------------------------------5-----5-----3-----3-----3-----3-----3-----3-----5-----5-|
|-------------------------------------------------------------------------------------------------|
|-5-----------5-----------5-----------3-----------1-----------1-----------1-----------3-----------|


|-5-----5-----5-----5-----5-----5-------------------------------------------------------------------|
|---5-----5-----5-----5-----5-----5---5-----5-----3-----3-----3-----3-----0-----0-----5-----5------3|
|-----5-----5-----5-----5-----5-----5---4-----4-----2-----2-----2-----2-----2-----2-----4-----4-----|
|-----------------------------------------5-----5-----3-----3-----3-----3-----3-----3-----5-----5--0|
|---------------------------------------------------------------------------------------------------|
|-5-----------5-----------5-----------3-----------1-----------1-----------1-----------3-------------|



Following lyrics come without guitar:

Temples burn
Fires underneath
What controls our anger
Moon coming in
Sun has lost
Did you know
Mountains fell

                                                              we need to rise higher
|-5-----5-----5-----5-----------------------------------------------------------------------------|
|---5-----5-----8-----8---6-----6-----5-----5-----3-----3-----1-----1-----0-----0-----5-----5-----|
|-----5-----7-----7-----7---5-----5-----5-----5-----2-----2-----2-----2-----2-----2-----4-----4---|
|-7-----------5---------------7-----7-----7-----7-0---0-----0-----3-----3-----3-----3-----5-----5-|
|-------------------------8-----------7-----------------------3-----------------------------------|
|-------------------------------------------------------------------------1-----------3-----------|


Chorus:

Letting one second go on
To go over a lifetime
We were such good friends
Will you find me where I am now
Letting one second go on
To go over a lifetime
We were such good friends
Will you find me where I am now

This 8 times during above lyrics:
|----------------------------|
|----------------------------|
|----------------------------|
|----------------------------|
|--7----7-5-5---5----9-10-7--|
|--5----5-3-3---3----7-8--5--|


The end.




Here are the lyrics:

Sun has lost
Mountains fell
What took away our anchor
Snow in the old sky
Escape is a long dead end

We need to rise higher

Temples burn
Fires underneath
What controls our anger
Moon coming in
Sun has lost
Did you know
Mountains fell

Letting one second go on
To go over a lifetime
We were such good friends
Will you find me where I am now

            
Submit corrections


        Second  lessons Hard to play? Try these video lessons and learn fast Second  lessons
        
↑ Back to top | Tablatures and chords for acoustic guitar and electric guitar, ukulele, drums are parodies/interpretations of the original songs. You may use it for private study, scholarship, research or language learning purposes only