» » »

Katatonia - Pale Flag Tabs

Artists:  A B C D E F G H I J K L M N O P Q R S T U V W X Y Z # 

Pale Flag Tabs

(ver. 1) Click to play this song!
Katatonia
 Rating:
4.3/5 (10 votes)

 Pale Flag  lessons Tabs too difficult? Try these video lessons and learn fast
 
                [Intro]

c |-------7----10---9---9---9---12---12/14---10---12---12---12----------------|
G |----0-----0----0---0---0---0----0-------0----0----0----0----0--------------|
D#|---------------------------------------------------------------------------|  X2
A#|---------------------------------------------------------------------------|
F |---------------------------------------------------------------------------|
C |-0-------------------------------------------------------------------------|

c |-------7----10---9---9---9---12---12/14---10---12---12---10h12p10-9--------|
G |----0-----0----0---0---0---0----0-------0----0----0----0-------------------|
D#|---------------------------------------------------------------------------|  X1
A#|---------------------------------------------------------------------------|
F |---------------------------------------------------------------------------|
C |-0-------------------------------------------------------------------------|

c |-------7----10---9---9---9---12---12/14---10---12---12---12----------------|
G |----0-----0----0---0---0---0----0-------0----0----0----0----0--------------|
D#|---------------------------------------------------------------------------|  X1
A#|---------------------------------------------------------------------------|
F |---------------------------------------------------------------------------|
C |-0-------------------------------------------------------------------------|


[Verse 1]

c |-------7----10---9---9---9---12---12/14---10---12---12---12----------------|
G |----0-----0----0---0---0---0----0-------0----0----0----0----0--------------|
D#|---------------------------------------------------------------------------|  X2
A#|---------------------------------------------------------------------------|
F |---------------------------------------------------------------------------|
C |-0-------------------------------------------------------------------------|

c |-------7----10---9---9---9---12---12/14---10---12---12---10h12p10-9--------|
G |----0-----0----0---0---0---0----0-------0----0----0----0-------------------|
D#|---------------------------------------------------------------------------|  X1
A#|---------------------------------------------------------------------------|
F |---------------------------------------------------------------------------|
C |-0-------------------------------------------------------------------------|

c |-------7----10---9---9---9---12---12/14---10---12---12---12----------------|
G |----0-----0----0---0---0---0----0-------0----0----0----0----0--------------|
D#|---------------------------------------------------------------------------|  X1
A#|---------------------------------------------------------------------------|
F |---------------------------------------------------------------------------|
C |-0-------------------------------------------------------------------------|


[Chorus]

c |-----5---3h5p3-2------2---2--------7---8\7------8---0----------------------|
G |---0---0------------0---0---0----7---7--------8---8------------------------|
D#|---------------------------------------------------------------------------|
A#|---------------------------------------------------------------------------|
F |---------------------------------------------------------------------------|
C |-0----------------2------------7------------8------------------------------|

c |-----5---3h5p3-2----2-3---3-2------7---8\7------8---8----------------------|
G |---0---0----------------0--------7---7--------8---8------------------------|
D#|---------------------------------------------------------------------------|
A#|---------------------------------------------------------------------------|
F |-0-------------------------------------------------------------------------|
C |-----------------3-------------7------------8------------------------------|

[Interlude/solo]

c |-----7---5-3-2h3p2p0--------------------------------12---------------------|
G |---0---0-------------3--/12-10-10-13-10-12---12-10-------------------------|
D#|---------------------------------------------------------------------------|
A#|---------------------------------------------------------------------------|
F |---------------------------------------------------------------------------|
C |-0-------------------------------------------------------------------------|

[Verse 2]

c |-------7----10---9---9---9---12---12/14---10---12---12---12----------------|
G |----0-----0----0---0---0---0----0-------0----0----0----0----0--------------|
D#|---------------------------------------------------------------------------|  X2
A#|---------------------------------------------------------------------------|
F |---------------------------------------------------------------------------|
C |-0-------------------------------------------------------------------------|

c |-------7----10---9---9---9---12---12/14---10---12---12---10h12p10-9--------|
G |----0-----0----0---0---0---0----0-------0----0----0----0-------------------|
D#|---------------------------------------------------------------------------|  X1
A#|---------------------------------------------------------------------------|
F |---------------------------------------------------------------------------|
C |-0-------------------------------------------------------------------------|

c |-------7----10---9---9---9---12---12/14---10---12---12---12----------------|
G |----0-----0----0---0---0---0----0-------0----0----0----0----0--------------|
D#|---------------------------------------------------------------------------|  X1
A#|---------------------------------------------------------------------------|
F |---------------------------------------------------------------------------|
C |-0-------------------------------------------------------------------------|

c |-------7----10---9---9---9---12---12/14---10---12---12---12----12---12---12------|
G |----0-----0----0---0---0---0----0-------0----0----0----0----0-----0----0----0----|
D#|---------------------------------------------------------------------------------|  X1
A#|---------------------------------------------------------------------------------|
F |---------------------------------------------------------------------------------|
C |-0-------------------------------------------------------------------------------|


[Instrumental/Chorus 2]

c |-----5---3h5p3-2------2---2--------7---8\7------8---0----------------------|
G |---0---0------------0---0---0----7---7--------8---8------------------------|
D#|---------------------------------------------------------------------------|
A#|---------------------------------------------------------------------------|
F |---------------------------------------------------------------------------|
C |-0----------------2------------7------------8------------------------------|

c |-----5---3h5p3-2----2-3---3-2------7---8\7------8---8----------------------|
G |---0---0----------------0--------7---7--------8---8------------------------|
D#|---------------------------------------------------------------------------|
A#|---------------------------------------------------------------------------|
F |-0-------------------------------------------------------------------------|
C |-----------------3-------------7------------8------------------------------|

[Outro]

c |-------7----10---9---9---9---12---12/14---10---12---12---12----------------|
G |----0-----0----0---0---0---0----0-------0----0----0----0----0--------------|
D#|---------------------------------------------------------------------------|  X4
A#|---------------------------------------------------------------------------|
F |---------------------------------------------------------------------------|
C |-0-------------------------------------------------------------------------|

            
Submit corrections


        Pale Flag  lessons Hard to play? Try these video lessons and learn fast Pale Flag  lessons
        
↑ Back to top | Tablatures and chords for acoustic guitar and electric guitar, ukulele, drums are parodies/interpretations of the original songs. You may use it for private study, scholarship, research or language learning purposes only